  0
SECTION
  2
HEADER
  9
$ACADVER
  1
AC1015
  9
$ACADMAINTVER
 70
     6
  9
$DWGCODEPAGE
  3
ANSI_1254
  9
$INSBASE
 10
0.0
 20
0.0
 30
0.0
  9
$EXTMIN
 10
0.0
 20
0.0
 30
0.0
  9
$EXTMAX
 10
279.4
 20
215.9
 30
0.0
  9
$LIMMIN
 10
0.0
 20
0.0
  9
$LIMMAX
 10
279.4
 20
215.9
  9
$ORTHOMODE
 70
     0
  9
$REGENMODE
 70
     1
  9
$FILLMODE
 70
     1
  9
$QTEXTMODE
 70
     0
  9
$MIRRTEXT
 70
     1
  9
$LTSCALE
 40
1.0
  9
$ATTMODE
 70
     1
  9
$TEXTSIZE
 40
3.5
  9
$TRACEWID
 40
1.0
  9
$TEXTSTYLE
  7
Standard
  9
$CLAYER
  8
0
  9
$CELTYPE
  6
ByLayer
  9
$CECOLOR
 62
   256
  9
$CELTSCALE
 40
1.0
  9
$DISPSILH
 70
     0
  9
$DIMSCALE
 40
1.0
  9
$DIMASZ
 40
3.5
  9
$DIMEXO
 40
1.0
  9
$DIMDLI
 40
3.75
  9
$DIMRND
 40
0.0
  9
$DIMDLE
 40
0.0
  9
$DIMEXE
 40
1.0
  9
$DIMTP
 40
0.0
  9
$DIMTM
 40
0.0
  9
$DIMTXT
 40
3.5
  9
$DIMCEN
 40
2.5
  9
$DIMTSZ
 40
0.0
  9
$DIMTOL
 70
     0
  9
$DIMLIM
 70
     0
  9
$DIMTIH
 70
     1
  9
$DIMTOH
 70
     1
  9
$DIMSE1
 70
     0
  9
$DIMSE2
 70
     0
  9
$DIMTAD
 70
     1
  9
$DIMZIN
 70
     0
  9
$DIMBLK
  1

  9
$DIMASO
 70
     1
  9
$DIMSHO
 70
     1
  9
$DIMPOST
  1

  9
$DIMAPOST
  1

  9
$DIMALT
 70
     0
  9
$DIMALTD
 70
     3
  9
$DIMALTF
 40
0.0393700787
  9
$DIMLFAC
 40
1.0
  9
$DIMTOFL
 70
     1
  9
$DIMTVP
 40
0.0
  9
$DIMTIX
 70
     0
  9
$DIMSOXD
 70
     0
  9
$DIMSAH
 70
     0
  9
$DIMBLK1
  1

  9
$DIMBLK2
  1

  9
$DIMSTYLE
  2
ISO-25
  9
$DIMCLRD
 70
     0
  9
$DIMCLRE
 70
     0
  9
$DIMCLRT
 70
     0
  9
$DIMTFAC
 40
1.0
  9
$DIMGAP
 40
1.524
  9
$DIMJUST
 70
     0
  9
$DIMSD1
 70
     0
  9
$DIMSD2
 70
     0
  9
$DIMTOLJ
 70
     0
  9
$DIMTZIN
 70
     0
  9
$DIMALTZ
 70
     0
  9
$DIMALTTZ
 70
     0
  9
$DIMUPT
 70
     0
  9
$DIMDEC
 70
     2
  9
$DIMTDEC
 70
     2
  9
$DIMALTU
 70
     2
  9
$DIMALTTD
 70
     3
  9
$DIMTXSTY
  7
Standard
  9
$DIMAUNIT
 70
     0
  9
$DIMADEC
 70
     2
  9
$DIMALTRND
 40
0.0
  9
$DIMAZIN
 70
     0
  9
$DIMDSEP
 70
    44
  9
$DIMATFIT
 70
     3
  9
$DIMFRAC
 70
     0
  9
$DIMLDRBLK
  1

  9
$DIMLUNIT
 70
     2
  9
$DIMLWD
 70
    -2
  9
$DIMLWE
 70
    -2
  9
$DIMTMOVE
 70
     0
  9
$LUNITS
 70
     2
  9
$LUPREC
 70
     2
  9
$SKETCHINC
 40
1.0
  9
$FILLETRAD
 40
10.0
  9
$AUNITS
 70
     0
  9
$AUPREC
 70
     2
  9
$MENU
  1
.
  9
$ELEVATION
 40
0.0
  9
$PELEVATION
 40
0.0
  9
$THICKNESS
 40
0.0
  9
$LIMCHECK
 70
     0
  9
$CHAMFERA
 40
0.0
  9
$CHAMFERB
 40
0.0
  9
$CHAMFERC
 40
0.0
  9
$CHAMFERD
 40
0.0
  9
$SKPOLY
 70
     0
  9
$TDCREATE
 40
2458985.721507454
  9
$TDUCREATE
 40
2458985.596507454
  9
$TDUPDATE
 40
2458985.721507709
  9
$TDUUPDATE
 40
2458985.596507709
  9
$TDINDWG
 40
0.0000000116
  9
$TDUSRTIMER
 40
0.0000000116
  9
$USRTIMER
 70
     1
  9
$ANGBASE
 50
0.0
  9
$ANGDIR
 70
     0
  9
$PDMODE
 70
     0
  9
$PDSIZE
 40
-1.0
  9
$PLINEWID
 40
0.0
  9
$SPLFRAME
 70
     0
  9
$SPLINETYPE
 70
     6
  9
$SPLINESEGS
 70
     8
  9
$HANDSEED
  5
E1
  9
$SURFTAB1
 70
     6
  9
$SURFTAB2
 70
     6
  9
$SURFTYPE
 70
     6
  9
$SURFU
 70
     6
  9
$SURFV
 70
     6
  9
$UCSBASE
  2

  9
$UCSNAME
  2

  9
$UCSORG
 10
0.0
 20
0.0
 30
0.0
  9
$UCSXDIR
 10
1.0
 20
0.0
 30
0.0
  9
$UCSYDIR
 10
0.0
 20
1.0
 30
0.0
  9
$UCSORTHOREF
  2

  9
$UCSORTHOVIEW
 70
     0
  9
$UCSORGTOP
 10
0.0
 20
0.0
 30
0.0
  9
$UCSORGBOTTOM
 10
0.0
 20
0.0
 30
0.0
  9
$UCSORGLEFT
 10
0.0
 20
0.0
 30
0.0
  9
$UCSORGRIGHT
 10
0.0
 20
0.0
 30
0.0
  9
$UCSORGFRONT
 10
0.0
 20
0.0
 30
0.0
  9
$UCSORGBACK
 10
0.0
 20
0.0
 30
0.0
  9
$PUCSBASE
  2

  9
$PUCSNAME
  2

  9
$PUCSORG
 10
0.0
 20
0.0
 30
0.0
  9
$PUCSXDIR
 10
1.0
 20
0.0
 30
0.0
  9
$PUCSYDIR
 10
0.0
 20
1.0
 30
0.0
  9
$PUCSORTHOREF
  2

  9
$PUCSORTHOVIEW
 70
     0
  9
$PUCSORGTOP
 10
0.0
 20
0.0
 30
0.0
  9
$PUCSORGBOTTOM
 10
0.0
 20
0.0
 30
0.0
  9
$PUCSORGLEFT
 10
0.0
 20
0.0
 30
0.0
  9
$PUCSORGRIGHT
 10
0.0
 20
0.0
 30
0.0
  9
$PUCSORGFRONT
 10
0.0
 20
0.0
 30
0.0
  9
$PUCSORGBACK
 10
0.0
 20
0.0
 30
0.0
  9
$USERI1
 70
     0
  9
$USERI2
 70
     0
  9
$USERI3
 70
     0
  9
$USERI4
 70
     0
  9
$USERI5
 70
     0
  9
$USERR1
 40
0.0
  9
$USERR2
 40
0.0
  9
$USERR3
 40
0.0
  9
$USERR4
 40
0.0
  9
$USERR5
 40
0.0
  9
$WORLDVIEW
 70
     1
  9
$SHADEDGE
 70
     3
  9
$SHADEDIF
 70
    70
  9
$TILEMODE
 70
     1
  9
$MAXACTVP
 70
    64
  9
$PINSBASE
 10
0.0
 20
0.0
 30
0.0
  9
$PLIMCHECK
 70
     0
  9
$PEXTMIN
 10
1.0000000000E+20
 20
1.0000000000E+20
 30
1.0000000000E+20
  9
$PEXTMAX
 10
-1.0000000000E+20
 20
-1.0000000000E+20
 30
-1.0000000000E+20
  9
$PLIMMIN
 10
0.0
 20
0.0
  9
$PLIMMAX
 10
420.0
 20
297.0
  9
$UNITMODE
 70
     0
  9
$VISRETAIN
 70
     1
  9
$PLINEGEN
 70
     0
  9
$PSLTSCALE
 70
     1
  9
$TREEDEPTH
 70
  3020
  9
$CMLSTYLE
  2
Standard
  9
$CMLJUST
 70
     0
  9
$CMLSCALE
 40
20.0
  9
$PROXYGRAPHICS
 70
     1
  9
$MEASUREMENT
 70
     1
  9
$CELWEIGHT
370
    -1
  9
$ENDCAPS
280
     0
  9
$JOINSTYLE
280
     0
  9
$LWDISPLAY
290
     1
  9
$INSUNITS
 70
     4
  9
$HYPERLINKBASE
  1

  9
$STYLESHEET
  1

  9
$XEDIT
290
     1
  9
$CEPSNTYPE
380
     0
  9
$PSTYLEMODE
290
     1
  9
$FINGERPRINTGUID
  2
{1bee0782-c194-4275-a604-6615d6eadfe0}
  9
$VERSIONGUID
  2
{FAEB1C32-E019-11D5-929B-00C0DF256EC4}
  9
$EXTNAMES
290
     1
  9
$PSVPSCALE
 40
0.0
  9
$OLESTARTUP
290
     0
  0
ENDSEC
  0
SECTION
  2
CLASSES
  0
CLASS
  1
ACDBDICTIONARYWDFLT
  2
AcDbDictionaryWithDefault
  3
ObjectDBX Classes
 90
        0
280
     0
281
     0
  0
CLASS
  1
VISUALSTYLE
  2
AcDbVisualStyle
  3
ObjectDBX Classes
 90
     4095
280
     0
281
     0
  0
CLASS
  1
MATERIAL
  2
AcDbMaterial
  3
ObjectDBX Classes
 90
     1153
280
     0
281
     0
  0
CLASS
  1
SCALE
  2
AcDbScale
  3
ObjectDBX Classes
 90
     1153
280
     0
281
     0
  0
CLASS
  1
TABLESTYLE
  2
AcDbTableStyle
  3
ObjectDBX Classes
 90
     4095
280
     0
281
     0
  0
CLASS
  1
MLEADERSTYLE
  2
AcDbMLeaderStyle
  3
ACDB_MLEADERSTYLE_CLASS
 90
     4095
280
     0
281
     0
  0
CLASS
  1
SUN
  2
AcDbSun
  3
SCENEOE
 90
     1153
280
     0
281
     0
  0
CLASS
  1
ACDBPLACEHOLDER
  2
AcDbPlaceHolder
  3
ObjectDBX Classes
 90
        0
280
     0
281
     0
  0
CLASS
  1
LAYOUT
  2
AcDbLayout
  3
ObjectDBX Classes
 90
        0
280
     0
281
     0
  0
ENDSEC
  0
SECTION
  2
TABLES
  0
TABLE
  2
VPORT
  5
8
330
0
100
AcDbSymbolTable
 70
     1
  0
VPORT
  5
29
330
8
100
AcDbSymbolTableRecord
100
AcDbViewportTableRecord
  2
*Active
 70
     0
 10
0.0
 20
0.0
 11
1.0
 21
1.0
 12
139.7
 22
107.95
 13
0.0
 23
0.0
 14
10.0
 24
10.0
 15
10.0
 25
10.0
 16
0.0
 26
0.0
 36
1.0
 17
0.0
 27
0.0
 37
0.0
 40
215.9
 41
1.2941176471
 42
50.0
 43
0.0
 44
0.0
 50
0.0
 51
0.0
 71
     0
 72
  2000
 73
     1
 74
     3
 75
     0
 76
     0
 77
     0
 78
     0
281
     0
 65
     1
110
0.0
120
0.0
130
0.0
111
1.0
121
0.0
131
0.0
112
0.0
122
1.0
132
0.0
 79
     0
146
0.0
  0
ENDTAB
  0
TABLE
  2
LTYPE
  5
5
330
0
100
AcDbSymbolTable
 70
     6
  0
LTYPE
  5
14
330
5
100
AcDbSymbolTableRecord
100
AcDbLinetypeTableRecord
  2
ByBlock
 70
     0
  3

 72
    65
 73
     0
 40
0.0
  0
LTYPE
  5
15
330
5
100
AcDbSymbolTableRecord
100
AcDbLinetypeTableRecord
  2
ByLayer
 70
     0
  3

 72
    65
 73
     0
 40
0.0
  0
LTYPE
  5
16
330
5
100
AcDbSymbolTableRecord
100
AcDbLinetypeTableRecord
  2
Continuous
 70
     0
  3
Solid line
 72
    65
 73
     0
 40
0.0
  0
LTYPE
  5
6E
330
5
100
AcDbSymbolTableRecord
100
AcDbLinetypeTableRecord
  2
HIDDEN
 70
     0
  3
Hidden __ __ __ __ __ __ __ __ __ __ __ __ __ __
 72
    65
 73
     2
 40
1.905
 49
1.27
 74
     0
 49
-0.635
 74
     0
  0
LTYPE
  5
6F
330
5
100
AcDbSymbolTableRecord
100
AcDbLinetypeTableRecord
  2
PHANTOM
 70
     0
  3
Phantom ______  __  __  ______  __  __  ______
 72
    65
 73
     6
 40
12.7
 49
6.35
 74
     0
 49
-1.27
 74
     0
 49
1.27
 74
     0
 49
-1.27
 74
     0
 49
1.27
 74
     0
 49
-1.27
 74
     0
  0
LTYPE
  5
70
330
5
100
AcDbSymbolTableRecord
100
AcDbLinetypeTableRecord
  2
CENTER
 70
     0
  3
Center ____ _ ____ _ ____ _ ____ _ ____ _ ____
 72
    65
 73
     4
 40
10.16
 49
6.35
 74
     0
 49
-1.27
 74
     0
 49
1.27
 74
     0
 49
-1.27
 74
     0
  0
LTYPE
  5
71
330
5
100
AcDbSymbolTableRecord
100
AcDbLinetypeTableRecord
  2
CENTERX2
 70
     0
  3
Center (2x) ________  __  ________  __  _____
 72
    65
 73
     4
 40
20.32
 49
12.7
 74
     0
 49
-2.54
 74
     0
 49
2.54
 74
     0
 49
-2.54
 74
     0
  0
LTYPE
  5
72
330
5
100
AcDbSymbolTableRecord
100
AcDbLinetypeTableRecord
  2
DOT2
 70
     0
  3
Dot (.5x) ........................................
 72
    65
 73
     2
 40
0.635
 49
0.0
 74
     0
 49
-0.635
 74
     0
  0
ENDTAB
  0
TABLE
  2
LAYER
  5
2
330
0
100
AcDbSymbolTable
 70
    17
  0
LAYER
  5
10
330
2
100
AcDbSymbolTableRecord
100
AcDbLayerTableRecord
  2
0
 70
     0
 62
     7
  6
Continuous
370
    -3
390
F
  0
LAYER
  5
73
330
2
100
AcDbSymbolTableRecord
100
AcDbLayerTableRecord
  2
FORMAT
 70
     0
 62
     7
  6
Continuous
370
    -3
390
F
  0
LAYER
  5
74
330
2
100
AcDbSymbolTableRecord
100
AcDbLayerTableRecord
  2
YARDIMCI_GEOMETRI
 70
     0
 62
    -6
  6
Continuous
290
     0
370
    -3
390
F
  0
LAYER
  5
75
330
2
100
AcDbSymbolTableRecord
100
AcDbLayerTableRecord
  2
SAYFA_CERCEVESI
 70
     0
 62
     7
  6
Continuous
370
    25
390
F
  0
LAYER
  5
76
330
2
100
AcDbSymbolTableRecord
100
AcDbLayerTableRecord
  2
ANTET
 70
     0
 62
     7
  6
Continuous
370
    -3
390
F
  0
LAYER
  5
77
330
2
100
AcDbSymbolTableRecord
100
AcDbLayerTableRecord
  2
OLCU
 70
     0
 62
   150
  6
Continuous
370
    -3
390
F
  0
LAYER
  5
78
330
2
100
AcDbSymbolTableRecord
100
AcDbLayerTableRecord
  2
METIN
 70
     0
 62
    96
  6
Continuous
370
    -3
390
F
  0
LAYER
  5
79
330
2
100
AcDbSymbolTableRecord
100
AcDbLayerTableRecord
  2
BALON
 70
     0
 62
     5
  6
Continuous
370
    -3
390
F
  0
LAYER
  5
7A
330
2
100
AcDbSymbolTableRecord
100
AcDbLayerTableRecord
  2
VURGU
 70
     0
 62
     7
  6
Continuous
370
    -3
390
F
  0
LAYER
  5
7B
330
2
100
AcDbSymbolTableRecord
100
AcDbLayerTableRecord
  2
SILIK
 70
     0
 62
     7
  6
Continuous
370
    -3
390
F
  0
LAYER
  5
7C
330
2
100
AcDbSymbolTableRecord
100
AcDbLayerTableRecord
  2
MODEL
 70
     0
 62
     7
  6
Continuous
370
    -3
390
F
  0
LAYER
  5
7D
330
2
100
AcDbSymbolTableRecord
100
AcDbLayerTableRecord
  2
DETAYLANDıRMA
 70
     0
 62
   190
  6
Continuous
370
    -3
390
F
  0
LAYER
  5
7E
330
2
100
AcDbSymbolTableRecord
100
AcDbLayerTableRecord
  2
TOLERANS
 70
     0
 62
   230
  6
Continuous
370
    -3
390
F
  0
LAYER
  5
7F
330
2
100
AcDbSymbolTableRecord
100
AcDbLayerTableRecord
  2
MERKEZ_CIZGILERI
 70
     0
 62
    30
  6
Continuous
370
    -3
390
F
  0
LAYER
  5
80
330
2
100
AcDbSymbolTableRecord
100
AcDbLayerTableRecord
  2
KESIT-DETAY_CIZGILERI
 70
     0
 62
     7
  6
Continuous
370
    -3
390
F
  0
LAYER
  5
81
330
2
100
AcDbSymbolTableRecord
100
AcDbLayerTableRecord
  2
\U+041E\U+0421\U+0415\U+0412\U+042B\U+0415
 70
     0
 62
     7
  6
Continuous
370
    -3
390
F
  0
LAYER
  5
82
330
2
100
AcDbSymbolTableRecord
100
AcDbLayerTableRecord
  2
\U+0412\U+041E\U+0414\U+042F\U+041D\U+042B\U+0415_\U+0417\U+041D\U+0410\U+041A\U+0418
 70
     0
 62
    11
  6
Continuous
370
    -3
390
F
  0
ENDTAB
  0
TABLE
  2
STYLE
  5
3
330
0
100
AcDbSymbolTable
 70
     1
  0
STYLE
  5
11
330
3
100
AcDbSymbolTableRecord
100
AcDbTextStyleTableRecord
  2
Standard
 70
     0
 40
0.0
 41
1.0
 50
0.0
 71
     0
 42
3.5
  3
txt
  4

  0
ENDTAB
  0
TABLE
  2
VIEW
  5
6
330
0
100
AcDbSymbolTable
 70
     0
  0
ENDTAB
  0
TABLE
  2
UCS
  5
7
330
0
100
AcDbSymbolTable
 70
     0
  0
ENDTAB
  0
TABLE
  2
APPID
  5
9
330
0
100
AcDbSymbolTable
 70
     1
  0
APPID
  5
12
330
9
100
AcDbSymbolTableRecord
100
AcDbRegAppTableRecord
  2
ACAD
 70
     0
  0
ENDTAB
  0
TABLE
  2
DIMSTYLE
  5
A
330
0
100
AcDbSymbolTable
 70
     1
100
AcDbDimStyleTable
  0
DIMSTYLE
105
27
330
A
100
AcDbSymbolTableRecord
100
AcDbDimStyleTableRecord
  2
ISO-25
 70
     0
 41
2.5
 42
0.625
 43
3.75
 44
1.25
 73
     0
 74
     0
 77
     1
 78
     8
140
2.5
141
2.5
143
0.0393700787
147
0.625
171
     3
172
     1
178
     0
271
     2
272
     2
274
     3
278
    44
283
     0
284
     8
340
11
  0
ENDTAB
  0
TABLE
  2
BLOCK_RECORD
  5
1
330
0
100
AcDbSymbolTable
 70
     3
  0
BLOCK_RECORD
  5
1F
330
1
100
AcDbSymbolTableRecord
100
AcDbBlockTableRecord
  2
*Model_Space
340
22
  0
BLOCK_RECORD
  5
1B
330
1
100
AcDbSymbolTableRecord
100
AcDbBlockTableRecord
  2
*Paper_Space
340
1E
  0
BLOCK_RECORD
  5
23
330
1
100
AcDbSymbolTableRecord
100
AcDbBlockTableRecord
  2
*Paper_Space0
340
26
  0
BLOCK_RECORD
  5
A7
330
1
100
AcDbSymbolTableRecord
100
AcDbBlockTableRecord
  2
SW_CENTERMARKSYMBOL_0
340
0
102
{BLKREFS
331
B2
102
}
  0
BLOCK_RECORD
  5
C7
330
1
100
AcDbSymbolTableRecord
100
AcDbBlockTableRecord
  2
SW_CENTERMARKSYMBOL_1
340
0
102
{BLKREFS
331
D2
102
}
  0
ENDTAB
  0
ENDSEC
  0
SECTION
  2
BLOCKS
  0
BLOCK
  5
20
330
1F
100
AcDbEntity
  8
0
100
AcDbBlockBegin
  2
*Model_Space
 70
     0
 10
0.0
 20
0.0
 30
0.0
  3
*Model_Space
  1

  0
ENDBLK
  5
21
330
1F
100
AcDbEntity
  8
0
100
AcDbBlockEnd
  0
BLOCK
  5
1C
330
1B
100
AcDbEntity
 67
     1
  8
0
100
AcDbBlockBegin
  2
*Paper_Space
 70
     0
 10
0.0
 20
0.0
 30
0.0
  3
*Paper_Space
  1

  0
ENDBLK
  5
1D
330
1B
100
AcDbEntity
 67
     1
  8
0
100
AcDbBlockEnd
  0
BLOCK
  5
24
330
23
100
AcDbEntity
  8
0
100
AcDbBlockBegin
  2
*Paper_Space0
 70
     0
 10
0.0
 20
0.0
 30
0.0
  3
*Paper_Space0
  1

  0
ENDBLK
  5
25
330
23
100
AcDbEntity
  8
0
100
AcDbBlockEnd
  0
BLOCK
  5
A8
330
A7
100
AcDbEntity
  8
0
100
AcDbBlockBegin
  2
SW_CENTERMARKSYMBOL_0
 70
     0
 10
0.0
 20
0.0
 30
0.0
  3
SW_CENTERMARKSYMBOL_0
  1

  0
LINE
  5
AA
330
A7
100
AcDbEntity
  8
FORMAT
 62
     0
100
AcDbLine
 10
0.0
 20
0.0
 30
0.0
 11
0.0
 21
2.5
 31
0.0
  0
LINE
  5
AB
330
A7
100
AcDbEntity
  8
FORMAT
 62
     0
100
AcDbLine
 10
0.0
 20
0.0
 30
0.0
 11
-2.5
 21
0.0
 31
0.0
  0
LINE
  5
AC
330
A7
100
AcDbEntity
  8
FORMAT
 62
     0
100
AcDbLine
 10
0.0
 20
0.0
 30
0.0
 11
0.0
 21
-2.5
 31
0.0
  0
LINE
  5
AD
330
A7
100
AcDbEntity
  8
FORMAT
 62
     0
100
AcDbLine
 10
0.0
 20
0.0
 30
0.0
 11
2.5
 21
0.0
 31
0.0
  0
LINE
  5
AE
330
A7
100
AcDbEntity
  8
FORMAT
 62
     0
100
AcDbLine
 10
0.0
 20
5.0
 30
0.0
 11
0.0
 21
142.5
 31
0.0
  0
LINE
  5
AF
330
A7
100
AcDbEntity
  8
FORMAT
 62
     0
100
AcDbLine
 10
-5.0
 20
0.0
 30
0.0
 11
-142.5
 21
0.0
 31
0.0
  0
LINE
  5
B0
330
A7
100
AcDbEntity
  8
FORMAT
 62
     0
100
AcDbLine
 10
0.0
 20
-5.0
 30
0.0
 11
0.0
 21
-142.5
 31
0.0
  0
LINE
  5
B1
330
A7
100
AcDbEntity
  8
FORMAT
 62
     0
100
AcDbLine
 10
5.0
 20
0.0
 30
0.0
 11
142.5
 21
0.0
 31
0.0
  0
ENDBLK
  5
A9
330
A7
100
AcDbEntity
  8
0
100
AcDbBlockEnd
  0
BLOCK
  5
C8
330
C7
100
AcDbEntity
  8
0
100
AcDbBlockBegin
  2
SW_CENTERMARKSYMBOL_1
 70
     0
 10
0.0
 20
0.0
 30
0.0
  3
SW_CENTERMARKSYMBOL_1
  1

  0
LINE
  5
CA
330
C7
100
AcDbEntity
  8
FORMAT
 62
     0
100
AcDbLine
 10
0.0
 20
0.0
 30
0.0
 11
0.0
 21
2.5
 31
0.0
  0
LINE
  5
CB
330
C7
100
AcDbEntity
  8
FORMAT
 62
     0
100
AcDbLine
 10
0.0
 20
0.0
 30
0.0
 11
-2.5
 21
0.0
 31
0.0
  0
LINE
  5
CC
330
C7
100
AcDbEntity
  8
FORMAT
 62
     0
100
AcDbLine
 10
0.0
 20
0.0
 30
0.0
 11
0.0
 21
-2.5
 31
0.0
  0
LINE
  5
CD
330
C7
100
AcDbEntity
  8
FORMAT
 62
     0
100
AcDbLine
 10
0.0
 20
0.0
 30
0.0
 11
2.5
 21
0.0
 31
0.0
  0
LINE
  5
CE
330
C7
100
AcDbEntity
  8
FORMAT
 62
     0
100
AcDbLine
 10
0.0
 20
5.0
 30
0.0
 11
0.0
 21
142.5
 31
0.0
  0
LINE
  5
CF
330
C7
100
AcDbEntity
  8
FORMAT
 62
     0
100
AcDbLine
 10
-5.0
 20
0.0
 30
0.0
 11
-142.5
 21
0.0
 31
0.0
  0
LINE
  5
D0
330
C7
100
AcDbEntity
  8
FORMAT
 62
     0
100
AcDbLine
 10
0.0
 20
-5.0
 30
0.0
 11
0.0
 21
-142.5
 31
0.0
  0
LINE
  5
D1
330
C7
100
AcDbEntity
  8
FORMAT
 62
     0
100
AcDbLine
 10
5.0
 20
0.0
 30
0.0
 11
142.5
 21
0.0
 31
0.0
  0
ENDBLK
  5
C9
330
C7
100
AcDbEntity
  8
0
100
AcDbBlockEnd
  0
ENDSEC
  0
SECTION
  2
ENTITIES
  0
LINE
  5
83
330
1F
100
AcDbEntity
  8
0
  6
Continuous
 62
     7
370
    25
100
AcDbLine
 10
-16.447954601
 20
103.6097161918
 30
0.0
 11
-16.447954601
 21
-73.4003878683
 31
0.0
  0
LINE
  5
84
330
1F
100
AcDbEntity
  8
0
  6
Continuous
 62
     7
370
    25
100
AcDbLine
 10
263.5520465911
 20
-73.4003878683
 30
0.0
 11
263.5520465911
 21
103.6097161918
 31
0.0
  0
ARC
  5
85
330
1F
100
AcDbEntity
  8
0
  6
Continuous
 62
     7
370
    25
100
AcDbCircle
 10
263.5520459951
 20
103.6097133994
 30
0.0
 40
280.0000000000001
100
AcDbArc
 50
135.0
 51
180.0
  0
LINE
  5
86
330
1F
100
AcDbEntity
  8
0
  6
Continuous
 62
     7
370
    25
100
AcDbLine
 10
195.5570943893
 20
431.5945409685
 30
0.0
 11
65.562146926
 21
301.5996121317
 31
0.0
  0
LINE
  5
87
330
1F
100
AcDbEntity
  8
0
  6
Continuous
 62
     7
370
    25
100
AcDbLine
 10
263.5520465911
 20
103.6097161918
 30
0.0
 11
393.5469903291
 21
233.6046599298
 31
0.0
  0
LINE
  5
88
330
1F
100
AcDbEntity
  8
0
  6
Continuous
 62
     7
370
    25
100
AcDbLine
 10
123.5520459951
 20
-73.4003878683
 30
0.0
 11
263.5520465911
 21
-73.4003878683
 31
0.0
  0
LINE
  5
89
330
1F
100
AcDbEntity
  8
0
  6
Continuous
 62
     7
370
    25
100
AcDbLine
 10
-16.447954601
 20
-73.4003878683
 30
0.0
 11
123.5520459951
 21
-73.4003878683
 31
0.0
  0
LWPOLYLINE
  5
8A
330
1F
100
AcDbEntity
  8
0
  6
Continuous
 62
     7
370
    25
100
AcDbPolyline
 90
       33
 70
   128
 43
0.0
 10
294.5520498098
 20
332.5996004491
 10
299.5259829105
 20
327.6256822496
 10
304.4873543323
 20
322.6643108278
 10
309.4236172975
 20
317.7280329614
 10
314.3223293365
 20
312.8293358236
 10
319.1710926831
 20
307.9805575758
 10
323.957658583
 20
303.1940065771
 10
328.6699570955
 20
298.4816931635
 10
333.2960672916
 20
293.8555978685
 10
337.8242917598
 20
289.3273734003
 10
342.2432311118
 20
284.9084340482
 10
346.5416796745
 20
280.6099854856
 10
350.7088043035
 20
276.4428459554
 10
354.7340698779
 20
272.4175952821
 10
358.6073138059
 20
268.544336453
 10
362.3187460244
 20
264.8329042345
 10
365.8590086044
 20
261.2926565557
 10
369.2191161454
 20
257.9325341135
 10
372.3906345905
 20
254.7610305696
 10
375.3655173124
 20
251.7861627489
 10
378.1362392247
 20
249.0154110342
 10
380.6958414853
 20
246.4558087736
 10
383.0378271878
 20
244.1138230711
 10
385.1562954725
 20
241.9953547865
 10
387.0458819211
 20
240.1057683378
 10
388.7018479646
 20
238.4498320966
 10
390.1199616731
 20
237.0317183881
 10
391.2966467679
 20
235.855003491
 10
392.2289826215
 20
234.9226974397
 10
392.9145552457
 20
234.2371248155
 10
393.3516659082
 20
233.8000141531
 10
393.5391821206
 20
233.6124681383
 10
393.5469903291
 20
233.6046599298
  0
LWPOLYLINE
  5
8B
330
1F
100
AcDbEntity
  8
0
  6
Continuous
 62
     7
370
    25
100
AcDbPolyline
 90
       33
 70
   128
 43
0.0
 10
195.5570943893
 20
431.5945409685
 10
195.5649100483
 20
431.58673276
 10
195.7524411619
 20
431.3992165475
 10
196.1895443738
 20
430.9621356874
 10
196.8751244486
 20
430.2765630632
 10
197.8074379504
 20
429.3442272096
 10
198.9841379464
 20
428.1675123125
 10
200.4022516549
 20
426.749398604
 10
202.0582027972
 20
425.0934623628
 10
203.9477892459
 20
423.2038759142
 10
206.0662575305
 20
421.0854076295
 10
208.4082506836
 20
418.743421927
 10
210.9678454936
 20
416.1838196664
 10
213.7385823072
 20
413.4130679517
 10
216.7134650291
 20
410.438200131
 10
219.8849685729
 20
407.2666965871
 10
223.2450910152
 20
403.9065741449
 10
226.7853386939
 20
400.3663264661
 10
230.4967709125
 20
396.6548942476
 10
234.3700148404
 20
392.7816354185
 10
238.3952878655
 20
388.7563847452
 10
242.5624124945
 20
384.589245215
 10
246.8608685077
 20
380.2907966524
 10
251.2797929586
 20
375.8718573003
 10
255.808032328
 20
371.3436328321
 10
260.4341425241
 20
366.7175077348
 10
265.1464261354
 20
362.0052241235
 10
269.9330069364
 20
357.2186433225
 10
274.7817702831
 20
352.369894877
 10
279.6804674209
 20
347.4711977392
 10
284.6167452872
 20
342.5349198728
 10
289.5781167091
 20
337.573548451
 10
294.5520498098
 20
332.5996004491
  0
LINE
  5
8C
330
1F
100
AcDbEntity
  8
0
  6
Continuous
 62
     1
370
    25
100
AcDbLine
 10
-16.447954601
 20
103.6097161918
 30
0.0
 11
263.5520465911
 21
103.6097161918
 31
0.0
  0
LWPOLYLINE
  5
8D
330
1F
100
AcDbEntity
  8
0
  6
Continuous
 62
     1
370
    25
100
AcDbPolyline
 90
       64
 70
   128
 43
0.0
 10
65.562146926
 20
301.5996121317
 10
65.5934095622
 20
301.5683494955
 10
65.8434026182
 20
301.3183676153
 10
66.3427517057
 20
300.8189999014
 10
67.0902014018
 20
300.0715576559
 10
68.083859259
 20
299.0778886228
 10
69.3212144316
 20
297.8405558019
 10
70.7991488517
 20
296.3625990301
 10
72.5139223278
 20
294.6478330045
 10
74.4612023473
 20
292.7005492597
 10
76.6360752524
 20
290.5256949812
 10
79.0330425144
 20
288.1287239938
 10
81.6460505367
 20
285.5157159715
 10
84.4685018302
 20
282.6932572275
 10
87.4932587386
 20
279.6685003191
 10
90.7126918674
 20
276.4490746408
 10
94.1186577321
 20
273.0430864244
 10
97.7025602252
 20
269.4592081457
 10
101.4553413034
 20
265.7064103036
 10
105.3675238282
 20
261.7942296415
 10
109.4292227418
 20
257.7325307279
 10
113.6301813886
 20
253.5315655618
 10
117.959784554
 20
249.2019735723
 10
122.4070972304
 20
244.7546624094
 10
126.9608842914
 20
240.2008675485
 10
131.6096430884
 20
235.5521224886
 10
136.3416288287
 20
230.8201395422
 10
141.144889617
 20
226.0168694406
 10
146.0072931141
 20
221.1544715314
 10
150.9165533126
 20
216.2451945692
 10
155.8602705837
 20
211.3014959245
 10
160.825959617
 20
206.335803166
 10
165.8010699094
 20
201.3606928735
 10
170.7730397821
 20
196.388711825
 10
175.7293075562
 20
191.4324366003
 10
180.6573562563
 20
186.5044139772
 10
185.5447285116
 20
181.6170417219
 10
190.379089886
 20
176.7826579958
 10
195.1482214273
 20
172.0135413557
 10
199.8400755466
 20
167.3216872364
 10
204.4427983702
 20
162.7189569622
 10
208.9447669924
 20
158.21698834
 10
213.3346118272
 20
153.8271509557
 10
217.6012464107
 20
149.5605163723
 10
221.7338748515
 20
145.4278879314
 10
225.7220812381
 20
141.4396815448
 10
229.5557700337
 20
137.6059852987
 10
233.2252703846
 20
133.9364849477
 10
236.7213063181
 20
130.4404490142
 10
240.0350563467
 20
127.1266989856
 10
243.1581385673
 20
124.0036242157
 10
246.0826628149
 20
121.0790925174
 10
248.8012530149
 20
118.3605097681
 10
251.3070322812
 20
115.8547305017
 10
253.5936750711
 20
113.5680877119
 10
255.6553997339
 20
111.5063630491
 10
257.4870057643
 20
109.6747570186
 10
259.0838589013
 20
108.0778889804
 10
260.4419358314
 20
106.7198269516
 10
261.5577943862
 20
105.6039683967
 10
262.4286331475
 20
104.7331296354
 10
263.0522169412
 20
104.1095309406
 10
263.4270109475
 20
103.7347518354
 10
263.5520465911
 20
103.6097161918
  0
LINE
  5
8E
330
1F
100
AcDbEntity
  8
0
  6
Continuous
 62
     7
370
    25
100
AcDbLine
 10
-475.3513872975
 20
332.5996004491
 30
0.0
 11
-475.3513872975
 21
202.6046716123
 31
0.0
  0
LINE
  5
8F
330
1F
100
AcDbEntity
  8
0
  6
Continuous
 62
     7
370
    25
100
AcDbLine
 10
-195.3513861054
 20
202.6046716123
 30
0.0
 11
-195.3513861054
 21
332.5996004491
 31
0.0
  0
LINE
  5
90
330
1F
100
AcDbEntity
  8
0
  6
Continuous
 62
     7
370
    25
100
AcDbLine
 10
-475.3513872975
 20
202.6046716123
 30
0.0
 11
-475.3513872975
 21
103.6097161918
 31
0.0
  0
LINE
  5
91
330
1F
100
AcDbEntity
  8
0
  6
Continuous
 62
     7
370
    25
100
AcDbLine
 10
-195.3513861054
 20
103.6097161918
 30
0.0
 11
-195.3513861054
 21
202.6046716123
 31
0.0
  0
LINE
  5
92
330
1F
100
AcDbEntity
  8
0
  6
Continuous
 62
     7
370
    25
100
AcDbLine
 10
-475.3513872975
 20
103.6097161918
 30
0.0
 11
-475.3513872975
 21
-73.4003878683
 31
0.0
  0
LINE
  5
93
330
1F
100
AcDbEntity
  8
0
  6
Continuous
 62
     7
370
    25
100
AcDbLine
 10
-195.3513861054
 20
-73.4003878683
 30
0.0
 11
-195.3513861054
 21
103.6097161918
 31
0.0
  0
LWPOLYLINE
  5
94
330
1F
100
AcDbEntity
  8
0
  6
Continuous
 62
     7
370
    25
100
AcDbPolyline
 90
      126
 70
   128
 43
0.0
 10
-475.3513872975
 20
332.5996004491
 10
-475.1745552176
 20
327.6256822496
 10
-474.6445358151
 20
322.6643108278
 10
-473.762625491
 20
317.7280329614
 10
-472.5310892218
 20
312.8293358236
 10
-470.9530264491
 20
307.9805575758
 10
-469.0324157828
 20
303.1940065771
 10
-466.7741299027
 20
298.4816931635
 10
-464.1838461512
 20
293.8555978685
 10
-461.2681210393
 20
289.3273734003
 10
-458.034323191
 20
284.9084340482
 10
-454.4906109923
 20
280.6099854856
 10
-450.6459474915
 20
276.4428459554
 10
-446.5100407952
 20
272.4175952821
 10
-442.0933366173
 20
268.544336453
 10
-437.4069959277
 20
264.8329042345
 10
-432.4628502482
 20
261.2926565557
 10
-427.2733942026
 20
257.9325341135
 10
-421.8517333621
 20
254.7610305696
 10
-416.2115618938
 20
251.7861627489
 10
-410.3671402091
 20
249.0154110342
 10
-404.3332130068
 20
246.4558087736
 10
-398.1250390762
 20
244.1138230711
 10
-391.7582869881
 20
241.9953547865
 10
-385.2490499967
 20
240.1057683378
 10
-378.6137640828
 20
238.4498320966
 10
-371.8691967779
 20
237.0317183881
 10
-365.0323819721
 20
235.855003491
 10
-358.120590111
 20
234.9226974397
 10
-351.1512797677
 20
234.2371248155
 10
-344.1420594582
 20
233.8000141531
 10
-337.1106322275
 20
233.6124681383
 10
-330.0747611911
 20
233.6749934106
 10
-323.0522187778
 20
233.9874111562
 10
-316.0607457512
 20
234.5489465147
 10
-309.1180023157
 20
235.3581391721
 10
-302.2415280694
 20
236.412992373
 10
-295.4486884528
 20
237.7107941061
 10
-288.7566514665
 20
239.2483257204
 10
-282.1823150271
 20
241.0216533094
 10
-275.7422864789
 20
243.0263065248
 10
-269.4528341645
 20
245.2572487741
 10
-263.3298501724
 20
247.708817616
 10
-257.3888019079
 20
250.3748141676
 10
-251.6446873897
 20
253.2485329061
 10
-246.1120277995
 20
256.322702065
 10
-240.8047929758
 20
259.5895432382
 10
-235.7363939637
 20
263.0408011823
 10
-230.9196234101
 20
266.6678034216
 10
-226.3666630143
 20
270.4613410383
 10
-222.0890090221
 20
274.411847487
 10
-218.0974647754
 20
278.5093389898
 10
-214.4021109098
 20
282.7434443384
 10
-211.0122830027
 20
287.1035241037
 10
-207.9365492219
 20
291.5785216241
 10
-205.1826805228
 20
296.1571418195
 10
-202.7576208466
 20
300.8278213888
 10
-200.6675094718
 20
305.5787586122
 10
-198.9176214093
 20
310.3979431539
 10
-197.5123823041
 20
315.2732156664
 10
-196.4553237313
 20
320.1922677904
 10
-195.7491428012
 20
325.1426421552
 10
-195.3955978507
 20
330.1118515878
 10
-195.3955978507
 20
335.0873791128
 10
-195.7491428012
 20
340.0565885454
 10
-196.4553237313
 20
345.0069629102
 10
-197.5123823041
 20
349.9260150343
 10
-198.9176214093
 20
354.8012875467
 10
-200.6675094718
 20
359.6204720884
 10
-202.7576208466
 20
364.3714093118
 10
-205.1826805228
 20
369.0420888811
 10
-207.9365492219
 20
373.6207090765
 10
-211.0122830027
 20
378.0957065969
 10
-214.4021109098
 20
382.4557565599
 10
-218.0974647754
 20
386.6898917108
 10
-222.0890090221
 20
390.7873832136
 10
-226.3666630143
 20
394.7378896623
 10
-230.9196234101
 20
398.5314272791
 10
-235.7363939637
 20
402.158399716
 10
-240.8047929758
 20
405.6096874624
 10
-246.1120277995
 20
408.8765286356
 10
-251.6446873897
 20
411.9506977945
 10
-257.3888019079
 20
414.824416533
 10
-263.3298501724
 20
417.4904130846
 10
-269.4528341645
 20
419.9419819265
 10
-275.7422864789
 20
422.1729241758
 10
-282.1823150271
 20
424.1775773912
 10
-288.7566514665
 20
425.9509049802
 10
-295.4486884528
 20
427.4884365945
 10
-302.2415280694
 20
428.7862681299
 10
-309.1180023157
 20
429.8410915285
 10
-316.0607457512
 20
430.6502841859
 10
-323.0522187778
 20
431.2118195444
 10
-330.0747611911
 20
431.5242074876
 10
-337.1106322275
 20
431.58673276
 10
-344.1420594582
 20
431.3992165475
 10
-351.1512797677
 20
430.9621356874
 10
-358.120590111
 20
430.2765630632
 10
-365.0323819721
 20
429.3442272096
 10
-371.8691967779
 20
428.1675123125
 10
-378.6137640828
 20
426.749398604
 10
-385.2490499967
 20
425.0934623628
 10
-391.7582869881
 20
423.2038759142
 10
-398.1250390762
 20
421.0854076295
 10
-404.3332130068
 20
418.743421927
 10
-410.3671402091
 20
416.1838196664
 10
-416.2115618938
 20
413.4130679517
 10
-421.8517333621
 20
410.438200131
 10
-427.2733942026
 20
407.2666965871
 10
-432.4628502482
 20
403.9065741449
 10
-437.4069959277
 20
400.3663264661
 10
-442.0933366173
 20
396.6548942476
 10
-446.5100407952
 20
392.7816354185
 10
-450.6459474915
 20
388.7563847452
 10
-454.4906109923
 20
384.589245215
 10
-458.034323191
 20
380.2907966524
 10
-461.2681210393
 20
375.8718573003
 10
-464.1838461512
 20
371.3436328321
 10
-466.7741299027
 20
366.7175077348
 10
-469.0324157828
 20
362.0052241235
 10
-470.9530264491
 20
357.2186433225
 10
-472.5310892218
 20
352.369894877
 10
-473.762625491
 20
347.4711977392
 10
-474.6445358151
 20
342.5349198728
 10
-475.1745552176
 20
337.573548451
 10
-475.3513872975
 20
332.5996004491
  0
LWPOLYLINE
  5
95
330
1F
100
AcDbEntity
  8
0
  6
Continuous
 62
     7
370
    25
100
AcDbPolyline
 90
      118
 70
   128
 43
0.0
 10
-458.7513894194
 20
332.5996004491
 10
-458.5734919065
 20
337.2832738309
 10
-458.0403134578
 20
341.9534169584
 10
-457.153388893
 20
346.5966187864
 10
-455.9152812117
 20
351.1994384676
 10
-454.3295517915
 20
355.7486437708
 10
-452.4007827395
 20
360.2310918718
 10
-450.1345321888
 20
364.6338783651
 10
-447.5373268479
 20
368.9443074613
 10
-444.616662001
 20
373.149951592
 10
-441.3809568041
 20
377.238681212
 10
-437.8395393842
 20
381.1986647993
 10
-434.0026244873
 20
385.0185774713
 10
-429.8812687749
 20
388.6873029619
 10
-425.4873633736
 20
392.1943508535
 10
-420.8335742706
 20
395.5295585542
 10
-415.9333125108
 20
398.6833297163
 10
-410.8007118457
 20
401.6465448289
 10
-405.450576579
 20
404.4107102304
 10
-399.8983219617
 20
406.9677792936
 10
-394.1599667424
 20
409.3104802518
 10
-388.2520474845
 20
411.431958571
 10
-382.1916036659
 20
413.3261643797
 10
-375.9961068982
 20
414.9876140504
 10
-369.6834199482
 20
416.4115094095
 10
-363.2717483097
 20
417.5937675386
 10
-356.7795712852
 20
418.5309611707
 10
-350.2256131151
 20
419.2203782945
 10
-343.6287684718
 20
419.6600519567
 10
-337.008057174
 20
419.8487304597
 10
-330.3825698213
 20
419.7858177572
 10
-323.7714084217
 20
419.4715522676
 10
-317.1936363333
 20
418.9067982584
 10
-310.6682166809
 20
418.0931948572
 10
-304.2139649743
 20
417.0330666452
 10
-297.8494890386
 20
415.7295428663
 10
-291.5931433791
 20
414.1862892061
 10
-285.4629621261
 20
412.4078356176
 10
-279.4766255075
 20
410.3992484956
 10
-273.6513853425
 20
408.1663690954
 10
-268.0040464157
 20
405.7156049162
 10
-262.5508845204
 20
403.0540191084
 10
-257.3076278323
 20
400.1893006712
 10
-252.2893861288
 20
397.1297048479
 10
-247.5106433385
 20
393.8840531259
 10
-242.985160684
 20
390.4617034345
 10
-238.7259915823
 20
386.8724905401
 10
-234.7454294914
 20
383.1268452554
 10
-231.0549334043
 20
379.2354964166
 10
-227.6651502007
 20
375.2096794992
 10
-224.5858550423
 20
371.0609876066
 10
-221.8259215706
 20
366.8014310747
 10
-219.3933144563
 20
362.443258658
 10
-217.2950446957
 20
357.9990171342
 10
-215.5371696108
 20
353.4815811067
 10
-214.1247406953
 20
348.9039145856
 10
-213.0618408674
 20
344.2792199998
 10
-212.3515323156
 20
339.6208785921
 10
-211.9958714002
 20
334.9423014074
 10
-211.9958714002
 20
330.2569292932
 10
-212.3515323156
 20
325.5783521085
 10
-213.0618408674
 20
320.9199808984
 10
-214.1247406953
 20
316.295316115
 10
-215.5371696108
 20
311.7176495939
 10
-217.2950446957
 20
307.200183764
 10
-219.3933144563
 20
302.7559720426
 10
-221.8259215706
 20
298.3977996259
 10
-224.5858550423
 20
294.1382132917
 10
-227.6651502007
 20
289.9895512014
 10
-231.0549334043
 20
285.963734284
 10
-234.7454294914
 20
282.0723854452
 10
-238.7259915823
 20
278.3267103582
 10
-242.985160684
 20
274.7375272661
 10
-247.5106433385
 20
271.3151775747
 10
-252.2893861288
 20
268.0695258527
 10
-257.3076278323
 20
265.0099300294
 10
-262.5508845204
 20
262.1452115923
 10
-268.0040464157
 20
259.4836257845
 10
-273.6513853425
 20
257.0328616052
 10
-279.4766255075
 20
254.7999524026
 10
-285.4629621261
 20
252.791395083
 10
-291.5931433791
 20
251.0129116922
 10
-297.8494890386
 20
249.4696878343
 10
-304.2139649743
 20
248.1661342531
 10
-310.6682166809
 20
247.1060358434
 10
-317.1936363333
 20
246.2924324422
 10
-323.7714084217
 20
245.727678433
 10
-330.3825698213
 20
245.4134129434
 10
-337.008057174
 20
245.3505002409
 10
-343.6287684718
 20
245.5391489416
 10
-350.2256131151
 20
245.9788226038
 10
-356.7795712852
 20
246.6682695299
 10
-363.2717483097
 20
247.605463162
 10
-369.6834199482
 20
248.7876914888
 10
-375.9961068982
 20
250.2116166502
 10
-382.1916036659
 20
251.873066321
 10
-388.2520474845
 20
253.7672721296
 10
-394.1599667424
 20
255.8887504488
 10
-399.8983219617
 20
258.2314216047
 10
-405.450576579
 20
260.7885204702
 10
-410.8007118457
 20
263.5526858717
 10
-415.9333125108
 20
266.5159009843
 10
-420.8335742706
 20
269.6696721464
 10
-425.4873633736
 20
273.0048798471
 10
-429.8812687749
 20
276.5118979364
 10
-434.0026244873
 20
280.1806532293
 10
-437.8395393842
 20
284.000536099
 10
-441.3809568041
 20
287.9605494886
 10
-444.616662001
 20
292.0492791086
 10
-447.5373268479
 20
296.254893437
 10
-450.1345321888
 20
300.5653225332
 10
-452.4007827395
 20
304.9681090265
 10
-454.3295517915
 20
309.4505869299
 10
-455.9152812117
 20
313.999792233
 10
-457.153388893
 20
318.6026119142
 10
-458.0403134578
 20
323.2457839399
 10
-458.5734919065
 20
327.9159568697
 10
-458.7513894194
 20
332.5996004491
  0
LINE
  5
96
330
1F
100
AcDbEntity
  8
0
  6
Continuous
 62
     7
370
    25
100
AcDbLine
 10
-475.3513872975
 20
-73.4003878683
 30
0.0
 11
-195.3513861054
 21
-73.4003878683
 31
0.0
  0
LWPOLYLINE
  5
97
330
1F
100
AcDbEntity
  8
0
  6
Continuous
 62
     1
370
    25
100
AcDbPolyline
 90
       33
 70
   128
 43
0.0
 10
-335.3513867015
 20
103.6097161918
 10
-328.3171822668
 20
103.7347518354
 10
-321.3007465356
 20
104.1095309406
 10
-314.3198039734
 20
104.7331296354
 10
-307.3919896388
 20
105.6039683967
 10
-300.5348012203
 20
106.7198269516
 10
-293.7655650431
 20
108.0778889804
 10
-287.101378327
 20
109.6747570186
 10
-280.5590719336
 20
111.5063630491
 10
-274.1551787013
 20
113.5680877119
 10
-267.9058701151
 20
115.8547305017
 10
-261.8269414061
 20
118.3605097681
 10
-255.9337333196
 20
121.0790925174
 10
-250.2411470169
 20
124.0036242157
 10
-244.7635546678
 20
127.1266989856
 10
-239.5147920006
 20
130.4404490142
 10
-234.5081210488
 20
133.9364849477
 10
-229.7561928981
 20
137.6059852987
 10
-225.2710029834
 20
141.4396815448
 10
-221.0638910884
 20
145.4278879314
 10
-217.1454742902
 20
149.5605163723
 10
-213.5256618613
 20
153.8271509557
 10
-210.2135807627
 20
158.21698834
 10
-207.2176277989
 20
162.7189569622
 10
-204.5453280562
 20
167.3216872364
 10
-202.2034764641
 20
172.0135413557
 10
-200.1979589814
 20
176.7826579958
 10
-198.5338420027
 20
181.6170417219
 10
-197.215357458
 20
186.5044139772
 10
-196.2457985037
 20
191.4324366003
 10
-195.6276387328
 20
196.388711825
 10
-195.362442767
 20
201.3606928735
 10
-195.3513861054
 20
202.6046716123
  0
LWPOLYLINE
  5
98
330
1F
100
AcDbEntity
  8
0
  6
Continuous
 62
     1
370
    25
100
AcDbPolyline
 90
       33
 70
   128
 43
0.0
 10
-475.3513872975
 20
202.6046716123
 10
-475.3403306359
 20
201.3606928735
 10
-475.0751346701
 20
196.388711825
 10
-474.4569748992
 20
191.4324366003
 10
-473.4874159449
 20
186.5044139772
 10
-472.1689314002
 20
181.6170417219
 10
-470.5048144215
 20
176.7826579958
 10
-468.4992969388
 20
172.0135413557
 10
-466.1574453467
 20
167.3216872364
 10
-463.485145604
 20
162.7189569622
 10
-460.4891926402
 20
158.21698834
 10
-457.1771115416
 20
153.8271509557
 10
-453.5572991127
 20
149.5605163723
 10
-449.6388823145
 20
145.4278879314
 10
-445.4317704195
 20
141.4396815448
 10
-440.9465805048
 20
137.6059852987
 10
-436.1946523541
 20
133.9364849477
 10
-431.1879814023
 20
130.4404490142
 10
-425.9392187351
 20
127.1266989856
 10
-420.461626386
 20
124.0036242157
 10
-414.7690400833
 20
121.0790925174
 10
-408.8758319968
 20
118.3605097681
 10
-402.7969032878
 20
115.8547305017
 10
-396.5475947016
 20
113.5680877119
 10
-390.1437014693
 20
111.5063630491
 10
-383.6013950759
 20
109.6747570186
 10
-376.9372083598
 20
108.0778889804
 10
-370.1679721826
 20
106.7198269516
 10
-363.3107837641
 20
105.6039683967
 10
-356.3829694295
 20
104.7331296354
 10
-349.4020268673
 20
104.1095309406
 10
-342.3855911361
 20
103.7347518354
 10
-335.3513867015
 20
103.6097161918
  0
LWPOLYLINE
  5
99
330
1F
100
AcDbEntity
  8
0
  6
Continuous
 62
     1
370
    25
100
AcDbPolyline
 90
       29
 70
   128
 43
0.0
 10
-417.6813081258
 20
267.6021360307
 10
-415.9333125108
 20
268.6883710771
 10
-410.8007118457
 20
271.6515861898
 10
-405.450576579
 20
274.4157515913
 10
-399.8983219617
 20
276.9728504568
 10
-394.1599667424
 20
279.3155216127
 10
-388.2520474845
 20
281.4370297342
 10
-382.1916036659
 20
283.3312057405
 10
-375.9961068982
 20
284.9926554113
 10
-369.6834199482
 20
286.4165805727
 10
-363.2717483097
 20
287.5988088995
 10
-356.7795712852
 20
288.5360025316
 10
-350.2256131151
 20
289.2254494577
 10
-343.6287684718
 20
289.6651231199
 10
-337.008057174
 20
289.8537718206
 10
-330.3825698213
 20
289.790859118
 10
-323.7714084217
 20
289.4765936285
 10
-317.1936363333
 20
288.9118396192
 10
-310.6682166809
 20
288.098236218
 10
-304.2139649743
 20
287.0381378084
 10
-297.8494890386
 20
285.7345842271
 10
-291.5931433791
 20
284.1913603693
 10
-285.4629621261
 20
282.4128769785
 10
-279.4766255075
 20
280.4043196588
 10
-273.6513853425
 20
278.1714104562
 10
-268.0040464157
 20
275.720646277
 10
-262.5508845204
 20
273.0590604692
 10
-257.3076278323
 20
270.194342032
 10
-253.0214652771
 20
267.6021360307
  0
LINE
  5
9A
330
1F
100
AcDbEntity
  8
0
  6
Continuous
 62
     1
370
    25
100
AcDbLine
 10
-335.3513867015
 20
103.6097161918
 30
0.0
 11
-195.3513861054
 21
103.6097161918
 31
0.0
  0
LINE
  5
9B
330
1F
100
AcDbEntity
  8
0
  6
Continuous
 62
     1
370
    25
100
AcDbLine
 10
-475.3513872975
 20
103.6097161918
 30
0.0
 11
-335.3513867015
 21
103.6097161918
 31
0.0
  0
LINE
  5
9C
330
1F
100
AcDbEntity
  8
0
  6
Continuous
 62
     7
370
    25
100
AcDbLine
 10
294.5520498098
 20
816.6572272655
 30
0.0
 11
164.5570948959
 21
816.6572272655
 31
0.0
  0
LINE
  5
9D
330
1F
100
AcDbEntity
  8
0
  6
Continuous
 62
     7
370
    25
100
AcDbLine
 10
164.5570948959
 20
536.6572260734
 30
0.0
 11
294.5520498098
 21
536.6572260734
 31
0.0
  0
LINE
  5
9E
330
1F
100
AcDbEntity
  8
0
  6
Continuous
 62
     7
370
    25
100
AcDbLine
 10
164.5570948959
 20
816.6572272655
 30
0.0
 11
123.5520459951
 21
816.6572272655
 31
0.0
  0
LINE
  5
9F
330
1F
100
AcDbEntity
  8
0
  6
Continuous
 62
     7
370
    25
100
AcDbLine
 10
123.5520459951
 20
536.6572260734
 30
0.0
 11
164.5570948959
 21
536.6572260734
 31
0.0
  0
CIRCLE
  5
A0
330
1F
100
AcDbEntity
  8
0
  6
Continuous
 62
     7
370
    25
100
AcDbCircle
 10
123.5520459951
 20
676.6572266695
 30
0.0
 40
123.4
  0
CIRCLE
  5
A1
330
1F
100
AcDbEntity
  8
0
  6
Continuous
 62
     7
370
    25
100
AcDbCircle
 10
123.5520459951
 20
676.6572266695
 30
0.0
 40
140.0
  0
LWPOLYLINE
  5
A2
330
1F
100
AcDbEntity
  8
0
  6
Continuous
 62
     7
370
    25
100
AcDbPolyline
 90
       64
 70
   128
 43
0.0
 10
294.5520498098
 20
816.6572272655
 10
299.5259829105
 20
816.4803951856
 10
304.4873543323
 20
815.9503757831
 10
309.4236172975
 20
815.068465459
 10
314.3223293365
 20
813.8369291899
 10
319.1710926831
 20
812.2588664171
 10
323.957658583
 20
810.3382557508
 10
328.6699570955
 20
808.0799698707
 10
333.2960672916
 20
805.4896861193
 10
337.8242917598
 20
802.5739610073
 10
342.2432311118
 20
799.3401631591
 10
346.5416796745
 20
795.7964509603
 10
350.7088043035
 20
791.9517874595
 10
354.7340698779
 20
787.8158807632
 10
358.6073138059
 20
783.3991765854
 10
362.3187460244
 20
778.7128358957
 10
365.8590086044
 20
773.7686902162
 10
369.2191161454
 20
768.5792341706
 10
372.3906345905
 20
763.1575733301
 10
375.3655173124
 20
757.5174018618
 10
378.1362392247
 20
751.6729801771
 10
380.6958414853
 20
745.6390529749
 10
383.0378271878
 20
739.4308790442
 10
385.1562954725
 20
733.0641269562
 10
387.0458819211
 20
726.5548899648
 10
388.7018479646
 20
719.9196040508
 10
390.1199616731
 20
713.175036746
 10
391.2966467679
 20
706.3382219401
 10
392.2289826215
 20
699.426430079
 10
392.9145552457
 20
692.4571197358
 10
393.3516659082
 20
685.4478994262
 10
393.5391821206
 20
678.4164721955
 10
393.4766568483
 20
671.3806011592
 10
393.1642391027
 20
664.3580587459
 10
392.6027335466
 20
657.3665857193
 10
391.7935110868
 20
650.4238422838
 10
390.7386876882
 20
643.5473680374
 10
389.4408561528
 20
636.7545284209
 10
387.9033543409
 20
630.0624914345
 10
386.1300267518
 20
623.4881549951
 10
384.1253437341
 20
617.0481264469
 10
381.8944312871
 20
610.7586741325
 10
379.4428624452
 20
604.6356901404
 10
376.7768360913
 20
598.6946418759
 10
373.9031173528
 20
592.9505273578
 10
370.828963095
 20
587.4178677675
 10
367.5621219218
 20
582.1106329438
 10
364.1108490766
 20
577.0422339317
 10
360.4838617385
 20
572.2254633781
 10
356.6903241218
 20
567.6725029823
 10
352.739817673
 20
563.3948489901
 10
348.6423261703
 20
559.4033047435
 10
344.4082059205
 20
555.7079508778
 10
340.0481261552
 20
552.3181229708
 10
335.5731286348
 20
549.2423891899
 10
330.9945233405
 20
546.4885204908
 10
326.3238437713
 20
544.0634608146
 10
321.5729065479
 20
541.9733494398
 10
316.7537220062
 20
540.2234613773
 10
311.8784494937
 20
538.8182222721
 10
306.9593973697
 20
537.7611636993
 10
302.0090230048
 20
537.0549827692
 10
297.0397986711
 20
536.7014378187
 10
294.5520498098
 20
536.6572260734
  0
LWPOLYLINE
  5
A3
330
1F
100
AcDbEntity
  8
0
  6
Continuous
 62
     7
370
    25
100
AcDbPolyline
 90
       25
 70
   128
 43
0.0
 10
223.721525842
 20
748.7241074321
 10
222.7409623802
 20
746.756416547
 10
220.1838635147
 20
741.2041619298
 10
217.8411923588
 20
735.4658067104
 10
215.7196916879
 20
729.5578874525
 10
213.8254858793
 20
723.497443634
 10
212.164043659
 20
717.3019468662
 10
210.7401408494
 20
710.9892599162
 10
209.5578901709
 20
704.5775882778
 10
208.6206965388
 20
698.0854112533
 10
207.9312719644
 20
691.5314530832
 10
207.4915908516
 20
684.9346084398
 10
207.3029347003
 20
678.3138971421
 10
207.3658325017
 20
671.6884097893
 10
207.680120343
 20
665.0772483897
 10
208.2448743523
 20
658.4994763014
 10
209.0584777535
 20
651.9740566489
 10
210.1185761631
 20
645.5198049423
 10
211.4221222938
 20
639.1553290066
 10
212.9653536022
 20
632.8989833471
 10
214.7438220919
 20
626.7688020942
 10
216.7523943127
 20
620.7824654755
 10
218.9852886141
 20
614.9572253105
 10
221.4360602439
 20
609.3098863837
 10
223.721525842
 20
604.5903459069
  0
LWPOLYLINE
  5
A4
330
1F
100
AcDbEntity
  8
0
  6
Continuous
 62
     1
370
    25
100
AcDbPolyline
 90
       33
 70
   128
 43
0.0
 10
263.5520465911
 20
676.6572266695
 10
263.4270109475
 20
669.6230222349
 10
263.0522169412
 20
662.6065865037
 10
262.4286331475
 20
655.6256439415
 10
261.5577943862
 20
648.6978296068
 10
260.4419358314
 20
641.8406411883
 10
259.0838589013
 20
635.0714050111
 10
257.4870057643
 20
628.407218295
 10
255.6553997339
 20
621.8649119016
 10
253.5936750711
 20
615.4610186693
 10
251.3070322812
 20
609.2117100832
 10
248.8012530149
 20
603.1327813742
 10
246.0826628149
 20
597.2395732877
 10
243.1581385673
 20
591.5469869849
 10
240.0350563467
 20
586.0693946359
 10
236.7213063181
 20
580.8206319687
 10
233.2252703846
 20
575.8139610168
 10
229.5557700337
 20
571.0620328662
 10
225.7220812381
 20
566.5768429515
 10
221.7338748515
 20
562.3697310564
 10
217.6012464107
 20
558.4513142583
 10
213.3346118272
 20
554.8315018293
 10
208.9447669924
 20
551.5194207308
 10
204.4427983702
 20
548.5234677669
 10
199.8400755466
 20
545.8511680242
 10
195.1482214273
 20
543.5093164322
 10
190.379089886
 20
541.5037989494
 10
185.5447285116
 20
539.8396819708
 10
180.6573562563
 20
538.521197426
 10
175.7293075562
 20
537.5516384718
 10
170.7730397821
 20
536.9334787008
 10
165.8010699094
 20
536.668282735
 10
164.5570948959
 20
536.6572260734
  0
LWPOLYLINE
  5
A5
330
1F
100
AcDbEntity
  8
0
  6
Continuous
 62
     1
370
    25
100
AcDbPolyline
 90
       33
 70
   128
 43
0.0
 10
164.5570948959
 20
816.6572272655
 10
165.8010699094
 20
816.6461706039
 10
170.7730397821
 20
816.3809746382
 10
175.7293075562
 20
815.7628148672
 10
180.6573562563
 20
814.793255913
 10
185.5447285116
 20
813.4747713682
 10
190.379089886
 20
811.8106543896
 10
195.1482214273
 20
809.8051369068
 10
199.8400755466
 20
807.4632853147
 10
204.4427983702
 20
804.790985572
 10
208.9447669924
 20
801.7950326082
 10
213.3346118272
 20
798.4829515096
 10
217.6012464107
 20
794.8631390807
 10
221.7338748515
 20
790.9447222826
 10
225.7220812381
 20
786.7376103875
 10
229.5557700337
 20
782.2524204728
 10
233.2252703846
 20
777.5004923221
 10
236.7213063181
 20
772.4938213703
 10
240.0350563467
 20
767.2450587031
 10
243.1581385673
 20
761.7674663541
 10
246.0826628149
 20
756.0748800513
 10
248.8012530149
 20
750.1816719648
 10
251.3070322812
 20
744.1027432558
 10
253.5936750711
 20
737.8534346697
 10
255.6553997339
 20
731.4495414373
 10
257.4870057643
 20
724.9072350439
 10
259.0838589013
 20
718.2430483279
 10
260.4419358314
 20
711.4738121507
 10
261.5577943862
 20
704.6166237321
 10
262.4286331475
 20
697.6888093975
 10
263.0522169412
 20
690.7078668353
 10
263.4270109475
 20
683.6914311041
 10
263.5520465911
 20
676.6572266695
  0
LWPOLYLINE
  5
A6
330
1F
100
AcDbEntity
  8
0
  6
Continuous
 62
     1
370
    25
100
AcDbPolyline
 90
       53
 70
   128
 43
0.0
 10
147.572248453
 20
797.6968482014
 10
145.9572643281
 20
797.2211211798
 10
141.4080608875
 20
795.6353917596
 10
136.9256044046
 20
793.7066227075
 10
132.52281698
 20
791.4403721568
 10
128.212391609
 20
788.8431668159
 10
124.0067575773
 20
785.922501969
 10
119.9180409086
 20
782.6867967722
 10
115.9580300801
 20
779.1453793523
 10
112.1381430194
 20
775.3084644553
 10
108.4693933145
 20
771.1871087429
 10
104.9623593927
 20
766.7932033417
 10
101.627151692
 20
762.1394142386
 10
98.4733879805
 20
757.2391524789
 10
95.5101598293
 20
752.1065518138
 10
92.7460130543
 20
746.756416547
 10
90.1889160515
 20
741.2041619298
 10
87.8462411702
 20
735.4658067104
 10
85.7247442246
 20
729.5578874525
 10
83.830538416
 20
723.497443634
 10
82.1690924705
 20
717.3019468662
 10
80.7451896609
 20
710.9892599162
 10
79.5629389823
 20
704.5775882778
 10
78.6257490755
 20
698.0854112533
 10
77.9363207758
 20
691.5314530832
 10
77.4966433883
 20
684.9346084398
 10
77.3079835118
 20
678.3138971421
 10
77.3708850384
 20
671.6884097893
 10
77.6851691545
 20
665.0772483897
 10
78.2499231637
 20
658.4994763014
 10
79.0635265649
 20
651.9740566489
 10
80.1236286998
 20
645.5198049423
 10
81.4271748305
 20
639.1553290066
 10
82.970406139
 20
632.8989833471
 10
84.7488709033
 20
626.7688020942
 10
86.7574468494
 20
620.7824654755
 10
88.9903374255
 20
614.9572253105
 10
91.4411090553
 20
609.3098863837
 10
94.1026892752
 20
603.8567244884
 10
96.9674095751
 20
598.6134678003
 10
100.027007261
 20
593.5952260968
 10
103.2726645709
 20
588.8164833066
 10
106.6950179876
 20
584.291000652
 10
110.2842038736
 20
580.0318315503
 10
114.0298724414
 20
576.0512694594
 10
117.9212245398
 20
572.3607733723
 10
121.9470394782
 20
568.9709901687
 10
126.0957102996
 20
565.8916950104
 10
130.3552754462
 20
563.1317615387
 10
134.7134525195
 20
560.6991544244
 10
139.1576772795
 20
558.6008846638
 10
143.6751347274
 20
556.8430095789
 10
147.572248453
 20
555.6176051375
  0
INSERT
  5
B2
330
1F
100
AcDbEntity
  8
FORMAT
 62
     7
100
AcDbBlockReference
  2
SW_CENTERMARKSYMBOL_0
 10
123.5520459951
 20
676.6572266695
 30
0.0
  0
LINE
  5
B3
330
1F
100
AcDbEntity
  8
0
  6
Continuous
 62
     7
370
    25
100
AcDbLine
 10
534.7686997064
 20
103.6097161918
 30
0.0
 11
534.7686997064
 21
-73.4003878683
 31
0.0
  0
LINE
  5
B4
330
1F
100
AcDbEntity
  8
0
  6
Continuous
 62
     7
370
    25
100
AcDbLine
 10
814.7687008985
 20
-73.4003878683
 30
0.0
 11
814.7687008985
 21
103.6097161918
 31
0.0
  0
LINE
  5
B5
330
1F
100
AcDbEntity
  8
0
  6
Continuous
 62
     7
370
    25
100
AcDbLine
 10
814.7687008985
 20
103.6097161918
 30
0.0
 11
814.7687008985
 21
202.6046716123
 31
0.0
  0
LINE
  5
B6
330
1F
100
AcDbEntity
  8
0
  6
Continuous
 62
     7
370
    25
100
AcDbLine
 10
534.7686997064
 20
202.6046716123
 30
0.0
 11
534.7686997064
 21
103.6097161918
 31
0.0
  0
LINE
  5
B7
330
1F
100
AcDbEntity
  8
0
  6
Continuous
 62
     7
370
    25
100
AcDbLine
 10
534.7686997064
 20
332.5996004491
 30
0.0
 11
534.7686997064
 21
202.6046716123
 31
0.0
  0
LINE
  5
B8
330
1F
100
AcDbEntity
  8
0
  6
Continuous
 62
     7
370
    25
100
AcDbLine
 10
814.7687008985
 20
202.6046716123
 30
0.0
 11
814.7687008985
 21
332.5996004491
 31
0.0
  0
LINE
  5
B9
330
1F
100
AcDbEntity
  8
0
  6
Continuous
 62
     7
370
    25
100
AcDbLine
 10
534.7686997064
 20
-73.4003878683
 30
0.0
 11
814.7687008985
 21
-73.4003878683
 31
0.0
  0
LWPOLYLINE
  5
BA
330
1F
100
AcDbEntity
  8
0
  6
Continuous
 62
     7
370
    25
100
AcDbPolyline
 90
       64
 70
   128
 43
0.0
 10
534.7686997064
 20
332.5996004491
 10
534.8129114517
 20
335.0873791128
 10
535.1664564022
 20
340.0565885454
 10
535.8726373323
 20
345.0069629102
 10
536.9296959051
 20
349.9260150343
 10
538.3349350103
 20
354.8012875467
 10
540.0848230728
 20
359.6204720884
 10
542.1749344477
 20
364.3714093118
 10
544.5999941238
 20
369.0420888811
 10
547.3538628229
 20
373.6207090765
 10
550.4295966038
 20
378.0957065969
 10
553.8194245108
 20
382.4557565599
 10
557.5147783765
 20
386.6898917108
 10
561.5063226231
 20
390.7873832136
 10
565.7839766153
 20
394.7378896623
 10
570.3369370111
 20
398.5314272791
 10
575.1537075647
 20
402.158399716
 10
580.2221065768
 20
405.6096874624
 10
585.5293414005
 20
408.8765286356
 10
591.0620009908
 20
411.9506977945
 10
596.8061155089
 20
414.824416533
 10
602.7471637734
 20
417.4904130846
 10
608.8701477655
 20
419.9419819265
 10
615.1596000799
 20
422.1729241758
 10
621.5996286281
 20
424.1775773912
 10
628.1739650675
 20
425.9509049802
 10
634.8660020539
 20
427.4884365945
 10
641.6588416704
 20
428.7862681299
 10
648.5353159168
 20
429.8410915285
 10
655.4780593523
 20
430.6502841859
 10
662.4695323789
 20
431.2118195444
 10
669.4920747922
 20
431.5242074876
 10
676.5279458285
 20
431.58673276
 10
683.5593730592
 20
431.3992165475
 10
690.5685933688
 20
430.9621356874
 10
697.537903712
 20
430.2765630632
 10
704.4496955731
 20
429.3442272096
 10
711.286510379
 20
428.1675123125
 10
718.0310776838
 20
426.749398604
 10
724.6663635978
 20
425.0934623628
 10
731.1756005892
 20
423.2038759142
 10
737.5423526772
 20
421.0854076295
 10
743.7505266079
 20
418.743421927
 10
749.7844538101
 20
416.1838196664
 10
755.6288754948
 20
413.4130679517
 10
761.2690469631
 20
410.438200131
 10
766.6907078036
 20
407.2666965871
 10
771.8801638492
 20
403.9065741449
 10
776.8243095287
 20
400.3663264661
 10
781.5106502184
 20
396.6548942476
 10
785.9273543962
 20
392.7816354185
 10
790.0632610925
 20
388.7563847452
 10
793.9079245933
 20
384.589245215
 10
797.4516367921
 20
380.2907966524
 10
800.6854346403
 20
375.8718573003
 10
803.6011597523
 20
371.3436328321
 10
806.1914435037
 20
366.7175077348
 10
808.4497293838
 20
362.0052241235
 10
810.3703400501
 20
357.2186433225
 10
811.9484028229
 20
352.369894877
 10
813.179939092
 20
347.4711977392
 10
814.0618494161
 20
342.5349198728
 10
814.5918688186
 20
337.573548451
 10
814.7687008985
 20
332.5996004491
  0
LINE
  5
BB
330
1F
100
AcDbEntity
  8
0
  6
Continuous
 62
     1
370
    25
100
AcDbLine
 10
534.7686997064
 20
103.6097161918
 30
0.0
 11
814.7687008985
 21
103.6097161918
 31
0.0
  0
LWPOLYLINE
  5
BC
330
1F
100
AcDbEntity
  8
0
  6
Continuous
 62
     1
370
    25
100
AcDbPolyline
 90
       64
 70
   128
 43
0.0
 10
534.7686997064
 20
202.6046716123
 10
534.8681798586
 20
206.335803166
 10
535.309999288
 20
211.3014959245
 10
536.1040970692
 20
216.2451945692
 10
537.2484913477
 20
221.1544715314
 10
538.740261496
 20
226.0168694406
 10
540.5756524214
 20
230.8201395422
 10
542.7500298628
 20
235.5521224886
 10
545.2578952917
 20
240.2008675485
 10
548.0929157146
 20
244.7546624094
 10
551.2479311236
 20
249.2019735723
 10
554.7149693974
 20
253.5315655618
 10
558.4852761039
 20
257.7325307279
 10
562.5493219503
 20
261.7942296415
 10
566.8968474873
 20
265.7064103036
 10
571.5168631085
 20
269.4592081457
 10
576.3977012047
 20
273.0430864244
 10
581.5270385155
 20
276.4490746408
 10
586.8919110307
 20
279.6685003191
 10
592.4787661442
 20
282.6932572275
 10
598.2734924563
 20
285.5157159715
 10
604.2614495763
 20
288.1287239938
 10
610.427520276
 20
290.5256949812
 10
616.7561179408
 20
292.7005492597
 10
623.2312610754
 20
294.6478330045
 10
629.8365956553
 20
296.3625990301
 10
636.5554286548
 20
297.8405558019
 10
643.3707951018
 20
299.0778886228
 10
650.2654711165
 20
300.0715576559
 10
657.2220484176
 20
300.8189999014
 10
664.2229473599
 20
301.3183676153
 10
671.2504870174
 20
301.5683494955
 10
678.2869135876
 20
301.5683494955
 10
685.3144532451
 20
301.3183676153
 10
692.3153521874
 20
300.8189999014
 10
699.2719294884
 20
300.0715576559
 10
706.1666055032
 20
299.0778886228
 10
712.9819719502
 20
297.8405558019
 10
719.7008049496
 20
296.3625990301
 10
726.3061395296
 20
294.6478330045
 10
732.7812826642
 20
292.7005492597
 10
739.109880329
 20
290.5256949812
 10
745.2759510287
 20
288.1287239938
 10
751.2639081487
 20
285.5157159715
 10
757.0586344608
 20
282.6932572275
 10
762.6454895743
 20
279.6685003191
 10
768.0103620895
 20
276.4490746408
 10
773.1396994003
 20
273.0430864244
 10
778.0205374965
 20
269.4592081457
 10
782.6405531176
 20
265.7064103036
 10
786.9880786547
 20
261.7942296415
 10
791.0521245011
 20
257.7325307279
 10
794.8224312075
 20
253.5315655618
 10
798.2894694814
 20
249.2019735723
 10
801.4444848903
 20
244.7546624094
 10
804.2795053133
 20
240.2008675485
 10
806.7873707422
 20
235.5521224886
 10
808.9617481836
 20
230.8201395422
 10
810.797139109
 20
226.0168694406
 10
812.2889092573
 20
221.1544715314
 10
813.4333035358
 20
216.2451945692
 10
814.227401317
 20
211.3014959245
 10
814.6692207464
 20
206.335803166
 10
814.7687008985
 20
202.6046716123
  0
LINE
  5
BD
330
1F
100
AcDbEntity
  8
0
  6
Continuous
 62
     7
370
    25
100
AcDbLine
 10
294.5520498098
 20
-300.5409911062
 30
0.0
 11
164.5570948959
 21
-300.5409911062
 31
0.0
  0
LINE
  5
BE
330
1F
100
AcDbEntity
  8
0
  6
Continuous
 62
     7
370
    25
100
AcDbLine
 10
164.5570948959
 20
-580.5409922983
 30
0.0
 11
294.5520498098
 21
-580.5409922983
 31
0.0
  0
LINE
  5
BF
330
1F
100
AcDbEntity
  8
0
  6
Continuous
 62
     7
370
    25
100
AcDbLine
 10
123.5520459951
 20
-580.5409922983
 30
0.0
 11
164.5570948959
 21
-580.5409922983
 31
0.0
  0
LINE
  5
C0
330
1F
100
AcDbEntity
  8
0
  6
Continuous
 62
     7
370
    25
100
AcDbLine
 10
164.5570948959
 20
-300.5409911062
 30
0.0
 11
123.5520459951
 21
-300.5409911062
 31
0.0
  0
LWPOLYLINE
  5
C1
330
1F
100
AcDbEntity
  8
0
  6
Continuous
 62
     7
370
    25
100
AcDbPolyline
 90
      126
 70
   128
 43
0.0
 10
294.5520498098
 20
-580.5409922983
 10
299.5259829105
 20
-580.3641602184
 10
304.4873543323
 20
-579.8341408159
 10
309.4236172975
 20
-578.9522304918
 10
314.3223293365
 20
-577.7206942227
 10
319.1710926831
 20
-576.1426314499
 10
323.957658583
 20
-574.2220207836
 10
328.6699570955
 20
-571.9637349035
 10
333.2960672916
 20
-569.373451152
 10
337.8242917598
 20
-566.4577260401
 10
342.2432311118
 20
-563.2239281919
 10
346.5416796745
 20
-559.6802159931
 10
350.7088043035
 20
-555.8355524923
 10
354.7340698779
 20
-551.699645796
 10
358.6073138059
 20
-547.2829416182
 10
362.3187460244
 20
-542.5966009285
 10
365.8590086044
 20
-537.652455249
 10
369.2191161454
 20
-532.4629992034
 10
372.3906345905
 20
-527.0413383629
 10
375.3655173124
 20
-521.4011668946
 10
378.1362392247
 20
-515.5567452099
 10
380.6958414853
 20
-509.5228180077
 10
383.0378271878
 20
-503.314644077
 10
385.1562954725
 20
-496.947891989
 10
387.0458819211
 20
-490.4386549975
 10
388.7018479646
 20
-483.8033690836
 10
390.1199616731
 20
-477.0588017788
 10
391.2966467679
 20
-470.2219869729
 10
392.2289826215
 20
-463.3101951118
 10
392.9145552457
 20
-456.3408847686
 10
393.3516659082
 20
-449.331664459
 10
393.5391821206
 20
-442.3002372283
 10
393.4766568483
 20
-435.264366192
 10
393.1642391027
 20
-428.2418237787
 10
392.6027335466
 20
-421.2503507521
 10
391.7935110868
 20
-414.3076073166
 10
390.7386876882
 20
-407.4311330702
 10
389.4408561528
 20
-400.6382934537
 10
387.9033543409
 20
-393.9462564673
 10
386.1300267518
 20
-387.3719200279
 10
384.1253437341
 20
-380.9318914797
 10
381.8944312871
 20
-374.6424391653
 10
379.4428624452
 20
-368.5194551732
 10
376.7768360913
 20
-362.5784069087
 10
373.9031173528
 20
-356.8342923905
 10
370.828963095
 20
-351.3016328003
 10
367.5621219218
 20
-345.9943979766
 10
364.1108490766
 20
-340.9259989645
 10
360.4838617385
 20
-336.1092284109
 10
356.6903241218
 20
-331.5562680151
 10
352.739817673
 20
-327.2786140229
 10
348.6423261703
 20
-323.2870697763
 10
344.4082059205
 20
-319.5917159106
 10
340.0481261552
 20
-316.2018880036
 10
335.5731286348
 20
-313.1261542227
 10
330.9945233405
 20
-310.3722855236
 10
326.3238437713
 20
-307.9472258474
 10
321.5729065479
 20
-305.8571144726
 10
316.7537220062
 20
-304.1072264101
 10
311.8784494937
 20
-302.7019873049
 10
306.9593973697
 20
-301.6449287321
 10
302.0090230048
 20
-300.938747802
 10
297.0397986711
 20
-300.5852028515
 10
292.0642860473
 20
-300.5852028515
 10
287.0950766147
 20
-300.938747802
 10
282.1446873487
 20
-301.6449287321
 10
277.2256501258
 20
-302.7019873049
 10
272.3503776134
 20
-304.1072264101
 10
267.5311781705
 20
-305.8571144726
 10
262.7802558482
 20
-307.9472258474
 10
258.109576279
 20
-310.3722855236
 10
253.5309560836
 20
-313.1261542227
 10
249.0559585632
 20
-316.2018880036
 10
244.695893699
 20
-319.5917159106
 10
240.4617659987
 20
-323.2870697763
 10
236.3642744959
 20
-327.2786140229
 10
232.4137680472
 20
-331.5562680151
 10
228.620237881
 20
-336.1092284109
 10
224.9932505429
 20
-340.9259989645
 10
221.5419702471
 20
-345.9943979766
 10
218.2751290739
 20
-351.3016328003
 10
215.200959915
 20
-356.8342923905
 10
212.327248627
 20
-362.5784069087
 10
209.6612371743
 20
-368.5194551732
 10
207.2096683324
 20
-374.6424391653
 10
204.9787409843
 20
-380.9318914797
 10
202.9740728677
 20
-387.3719200279
 10
201.2007452787
 20
-393.9462564673
 10
199.6632285655
 20
-400.6382934537
 10
198.3654119313
 20
-407.4311330702
 10
197.310566181
 20
-414.3076073166
 10
196.501366073
 20
-421.2503507521
 10
195.9398530663
 20
-428.2418237787
 10
195.6274353207
 20
-435.264366192
 10
195.5649100483
 20
-442.3002372283
 10
195.7524411619
 20
-449.331664459
 10
196.1895443738
 20
-456.3408847686
 10
196.8751244486
 20
-463.3101951118
 10
197.8074379504
 20
-470.2219869729
 10
198.9841379464
 20
-477.0588017788
 10
200.4022516549
 20
-483.8033690836
 10
202.0582027972
 20
-490.4386549975
 10
203.9477892459
 20
-496.947891989
 10
206.0662575305
 20
-503.314644077
 10
208.4082506836
 20
-509.5228180077
 10
210.9678454936
 20
-515.5567452099
 10
213.7385823072
 20
-521.4011668946
 10
216.7134650291
 20
-527.0413383629
 10
219.8849685729
 20
-532.4629992034
 10
223.2450910152
 20
-537.652455249
 10
226.7853386939
 20
-542.5966009285
 10
230.4967709125
 20
-547.2829416182
 10
234.3700148404
 20
-551.699645796
 10
238.3952878655
 20
-555.8355524923
 10
242.5624124945
 20
-559.6802159931
 10
246.8608685077
 20
-563.2239281919
 10
251.2797929586
 20
-566.4577260401
 10
255.808032328
 20
-569.373451152
 10
260.4341425241
 20
-571.9637349035
 10
265.1464261354
 20
-574.2220207836
 10
269.9330069364
 20
-576.1426314499
 10
274.7817702831
 20
-577.7206942227
 10
279.6804674209
 20
-578.9522304918
 10
284.6167452872
 20
-579.8341408159
 10
289.5781167091
 20
-580.3641602184
 10
294.5520498098
 20
-580.5409922983
  0
LWPOLYLINE
  5
C2
330
1F
100
AcDbEntity
  8
0
  6
Continuous
 62
     7
370
    25
100
AcDbPolyline
 90
      118
 70
   128
 43
0.0
 10
294.5520498098
 20
-563.9409944203
 10
289.8683913291
 20
-563.7630969073
 10
285.1982333005
 20
-563.2299184587
 10
280.5550463737
 20
-562.3429938938
 10
275.9522117913
 20
-561.1048862125
 10
271.4030064882
 20
-559.5191567924
 10
266.9205583871
 20
-557.5903877403
 10
262.5177718938
 20
-555.3241371896
 10
258.2073427976
 20
-552.7269318487
 10
254.001713568
 20
-549.8062670018
 10
249.9129839481
 20
-546.570561805
 10
245.9529780091
 20
-543.0291443851
 10
242.1330951393
 20
-539.1922294881
 10
238.4643398464
 20
-535.0708737757
 10
234.957306856
 20
-530.6769683745
 10
231.6220991553
 20
-526.0231792714
 10
228.4683354438
 20
-521.1229175117
 10
225.5051128805
 20
-515.9903168466
 10
222.7409623802
 20
-510.6401815798
 10
220.1838635147
 20
-505.0879269626
 10
217.8411923588
 20
-499.3495717432
 10
215.7196916879
 20
-493.4416524853
 10
213.8254858793
 20
-487.3812086668
 10
212.164043659
 20
-481.185711899
 10
210.7401408494
 20
-474.873024949
 10
209.5578901709
 20
-468.4613533105
 10
208.6206965388
 20
-461.9691762861
 10
207.9312719644
 20
-455.4152181159
 10
207.4915908516
 20
-448.8183734726
 10
207.3029347003
 20
-442.1976621749
 10
207.3658325017
 20
-435.5721748221
 10
207.680120343
 20
-428.9610134225
 10
208.2448743523
 20
-422.3832413342
 10
209.0584777535
 20
-415.8578216817
 10
210.1185761631
 20
-409.4035699751
 10
211.4221222938
 20
-403.0390940394
 10
212.9653536022
 20
-396.7827483799
 10
214.7438220919
 20
-390.652567127
 10
216.7523943127
 20
-384.6662305083
 10
218.9852886141
 20
-378.8409903433
 10
221.4360602439
 20
-373.1936514165
 10
224.0976386011
 20
-367.7404895212
 10
226.9623570383
 20
-362.4972328331
 10
230.0219603122
 20
-357.4789911296
 10
233.2676120342
 20
-352.7002483394
 10
236.6899691761
 20
-348.1747656848
 10
240.2791522682
 20
-343.9155965831
 10
244.0248199046
 20
-339.9350344922
 10
247.916176194
 20
-336.2445384051
 10
251.9419856609
 20
-332.8547552015
 10
256.0906626523
 20
-329.7754600432
 10
260.3502191842
 20
-327.0155265715
 10
264.7084065021
 20
-324.5829194572
 10
269.1526331247
 20
-322.4846496966
 10
273.6700840533
 20
-320.7267746117
 10
278.2477505744
 20
-319.3143456962
 10
282.8724302591
 20
-318.2514458682
 10
287.5307716668
 20
-317.5411373164
 10
292.2093786538
 20
-317.1854764011
 10
296.8947209657
 20
-317.1854764011
 10
301.5733130515
 20
-317.5411373164
 10
306.2316693605
 20
-318.2514458682
 10
310.8563341439
 20
-319.3143456962
 10
315.434000665
 20
-320.7267746117
 10
319.9514664949
 20
-322.4846496966
 10
324.3956931174
 20
-324.5829194572
 10
328.7538655341
 20
-327.0155265715
 10
333.0134369672
 20
-329.7754600432
 10
337.1620990575
 20
-332.8547552015
 10
341.1879159749
 20
-336.2445384051
 10
345.0792648137
 20
-339.9350344922
 10
348.8249399007
 20
-343.9155965831
 10
352.4141229928
 20
-348.1747656848
 10
355.8364726842
 20
-352.7002483394
 10
359.0821393073
 20
-357.4789911296
 10
362.1417351306
 20
-362.4972328331
 10
365.0064535678
 20
-367.7404895212
 10
367.6680393756
 20
-373.1936514165
 10
370.1188035548
 20
-378.8409903433
 10
372.3516978563
 20
-384.6662305083
 10
374.3602551759
 20
-390.652567127
 10
376.1387385667
 20
-396.7827483799
 10
377.6819624246
 20
-403.0390940394
 10
378.9855160058
 20
-409.4035699751
 10
380.0456144155
 20
-415.8578216817
 10
380.8592178167
 20
-422.3832413342
 10
381.4239718259
 20
-428.9610134225
 10
381.7382671178
 20
-435.5721748221
 10
381.801150018
 20
-442.1976621749
 10
381.6125013173
 20
-448.8183734726
 10
381.1728276551
 20
-455.4152181159
 10
380.483380729
 20
-461.9691762861
 10
379.5462168992
 20
-468.4613533105
 10
378.3639587701
 20
-474.873024949
 10
376.9400634111
 20
-481.185711899
 10
375.2786137403
 20
-487.3812086668
 10
373.3843930305
 20
-493.4416524853
 10
371.2628998101
 20
-499.3495717432
 10
368.9202286542
 20
-505.0879269626
 10
366.3631297887
 20
-510.6401815798
 10
363.5989792884
 20
-515.9903168466
 10
360.6357492746
 20
-521.1229175117
 10
357.4819930137
 20
-526.0231792714
 10
354.146785313
 20
-530.6769683745
 10
350.6397523225
 20
-535.0708737757
 10
346.9709970296
 20
-539.1922294881
 10
343.1511141599
 20
-543.0291443851
 10
339.1911007703
 20
-546.570561805
 10
335.1023860515
 20
-549.8062670018
 10
330.8967568219
 20
-552.7269318487
 10
326.5863277257
 20
-555.3241371896
 10
322.1835412324
 20
-557.5903877403
 10
317.7010782302
 20
-559.5191567924
 10
313.151872927
 20
-561.1048862125
 10
308.5490532459
 20
-562.3429938938
 10
303.905866319
 20
-563.2299184587
 10
299.2357082904
 20
-563.7630969073
 10
294.5520498098
 20
-563.9409944203
  0
ARC
  5
C3
330
1F
100
AcDbEntity
  8
0
  6
Continuous
 62
     7
370
    25
100
AcDbCircle
 10
123.5520459951
 20
-440.5409917023
 30
0.0
 40
140.0000000000001
100
AcDbArc
 50
90.0
 51
270.0
  0
ARC
  5
C4
330
1F
100
AcDbEntity
  8
0
  6
Continuous
 62
     7
370
    25
100
AcDbCircle
 10
123.5520459951
 20
-440.5409917023
 30
0.0
 40
123.4
100
AcDbArc
 50
324.2668922193
 51
35.7331077807
  0
LWPOLYLINE
  5
C5
330
1F
100
AcDbEntity
  8
0
  6
Continuous
 62
     1
370
    25
100
AcDbPolyline
 90
       64
 70
   128
 43
0.0
 10
164.5570948959
 20
-300.5409911062
 10
160.825959617
 20
-300.6404712584
 10
155.8602705837
 20
-301.0822906878
 10
150.9165533126
 20
-301.8763884689
 10
146.0072931141
 20
-303.0207827475
 10
141.144889617
 20
-304.5125528957
 10
136.3416288287
 20
-306.3479438212
 10
131.6096430884
 20
-308.5223212626
 10
126.9608842914
 20
-311.0301866915
 10
122.4070972304
 20
-313.8652071144
 10
117.959784554
 20
-317.0202225234
 10
113.6301813886
 20
-320.4872607972
 10
109.4292227418
 20
-324.2575675037
 10
105.3675238282
 20
-328.3216133501
 10
101.4553413034
 20
-332.6691388871
 10
97.7025602252
 20
-337.2891545083
 10
94.1186577321
 20
-342.1699926045
 10
90.7126918674
 20
-347.2993299152
 10
87.4932587386
 20
-352.6642024304
 10
84.4685018302
 20
-358.251057544
 10
81.6460505367
 20
-364.0457838561
 10
79.0330425144
 20
-370.0337409761
 10
76.6360752524
 20
-376.1998116757
 10
74.4612023473
 20
-382.5284093406
 10
72.5139223278
 20
-389.0035524752
 10
70.7991488517
 20
-395.6088870551
 10
69.3212144316
 20
-402.3277200546
 10
68.083859259
 20
-409.1430865016
 10
67.0902014018
 20
-416.0377625163
 10
66.3427517057
 20
-422.9943398174
 10
65.8434026182
 20
-429.9952387597
 10
65.5934095622
 20
-437.0227784171
 10
65.5934095622
 20
-444.0592049874
 10
65.8434026182
 20
-451.0867446448
 10
66.3427517057
 20
-458.0876435872
 10
67.0902014018
 20
-465.0442208882
 10
68.083859259
 20
-471.938896903
 10
69.3212144316
 20
-478.75426335
 10
70.7991488517
 20
-485.4730963494
 10
72.5139223278
 20
-492.0784309294
 10
74.4612023473
 20
-498.553574064
 10
76.6360752524
 20
-504.8821717288
 10
79.0330425144
 20
-511.0482424285
 10
81.6460505367
 20
-517.0361995484
 10
84.4685018302
 20
-522.8309258606
 10
87.4932587386
 20
-528.4177809741
 10
90.7126918674
 20
-533.7826534893
 10
94.1186577321
 20
-538.9119908001
 10
97.7025602252
 20
-543.7928288962
 10
101.4553413034
 20
-548.4128445174
 10
105.3675238282
 20
-552.7603700544
 10
109.4292227418
 20
-556.8244159009
 10
113.6301813886
 20
-560.5947226073
 10
117.959784554
 20
-564.0617608811
 10
122.4070972304
 20
-567.2167762901
 10
126.9608842914
 20
-570.0517967131
 10
131.6096430884
 20
-572.559662142
 10
136.3416288287
 20
-574.7340395834
 10
141.144889617
 20
-576.5694305088
 10
146.0072931141
 20
-578.0612006571
 10
150.9165533126
 20
-579.2055949356
 10
155.8602705837
 20
-579.9996927168
 10
160.825959617
 20
-580.4415121462
 10
164.5570948959
 20
-580.5409922983
  0
LWPOLYLINE
  5
C6
330
1F
100
AcDbEntity
  8
0
  6
Continuous
 62
     1
370
    25
100
AcDbPolyline
 90
       29
 70
   128
 43
0.0
 10
229.5545704902
 20
-358.2110702779
 10
232.1467839421
 20
-362.4972328331
 10
235.0115023792
 20
-367.7404895212
 10
237.673088187
 20
-373.1936514165
 10
240.1238523663
 20
-378.8409903433
 10
242.3567466677
 20
-384.6662305083
 10
244.3653188885
 20
-390.652567127
 10
246.1437873781
 20
-396.7827483799
 10
247.6870186866
 20
-403.0390940394
 10
248.9905573667
 20
-409.4035699751
 10
250.0506706775
 20
-415.8578216817
 10
250.8642740787
 20
-422.3832413342
 10
251.4290280879
 20
-428.9610134225
 10
251.7433084787
 20
-435.5721748221
 10
251.8062062801
 20
-442.1976621749
 10
251.6175426782
 20
-448.8183734726
 10
251.177869016
 20
-455.4152181159
 10
250.488436991
 20
-461.9691762861
 10
249.5512582601
 20
-468.4613533105
 10
248.369000131
 20
-474.873024949
 10
246.9451047719
 20
-481.185711899
 10
245.2836551011
 20
-487.3812086668
 10
243.3894492925
 20
-493.4416524853
 10
241.2679560722
 20
-499.3495717432
 10
238.9252774657
 20
-505.0879269626
 10
236.3681786001
 20
-510.6401815798
 10
233.6040355504
 20
-515.9903168466
 10
230.6408055366
 20
-521.1229175117
 10
229.5545704902
 20
-522.8709131267
  0
INSERT
  5
D2
330
1F
100
AcDbEntity
  8
FORMAT
 62
     7
100
AcDbBlockReference
  2
SW_CENTERMARKSYMBOL_1
 10
123.5520459951
 20
-440.5409917023
 30
0.0
  0
LINE
  5
D3
330
1F
100
AcDbEntity
  8
0
  6
Continuous
 62
     7
370
    25
100
AcDbLine
 10
513.2509926188
 20
-486.9452505226
 30
0.0
 11
513.2509926188
 21
-631.4812246038
 31
0.0
  0
LINE
  5
D4
330
1F
100
AcDbEntity
  8
0
  6
Continuous
 62
     7
370
    25
100
AcDbLine
 10
793.2509886698
 20
-631.4812246038
 30
0.0
 11
793.2509886698
 21
-486.9452505226
 31
0.0
  0
LINE
  5
D5
330
1F
100
AcDbEntity
  8
0
  6
Continuous
 62
     7
370
    25
100
AcDbLine
 10
652.9226930362
 20
-160.1627550874
 30
0.0
 11
561.0023815307
 21
-319.3734104789
 31
0.0
  0
LINE
  5
D6
330
1F
100
AcDbEntity
  8
0
  6
Continuous
 62
     7
370
    25
100
AcDbLine
 10
803.4894960392
 20
-459.373405642
 30
0.0
 11
895.409812813
 21
-300.1627593766
 31
0.0
  0
SPLINE
  5
D7
330
1F
100
AcDbEntity
  8
0
  6
Continuous
 62
     7
370
    25
100
AcDbSpline
210
0.0
220
0.0
230
1.0
 70
     8
 71
     3
 72
    27
 73
    23
 74
     0
 42
0.000000001
 43
0.00000001
 40
0.0
 40
0.0
 40
0.0
 40
0.0
 40
0.0306252159676757
 40
0.0832712919155655
 40
0.1359623006436915
 40
0.1887210719775381
 40
0.2415725029894484
 40
0.2945399276609766
 40
0.3476452224332173
 40
0.4009081786966867
 40
0.4543446443041267
 40
0.5079665617480451
 40
0.5617802271617798
 40
0.6157850522086677
 40
0.6699721961644147
 40
0.7243230750200106
 40
0.7788084659344733
 40
0.83338747237792
 40
0.8879931873536477
 40
0.9425552495816417
 40
0.9932048147700918
 40
1.0
 40
1.0
 40
1.0
 40
1.0
 10
561.0023815307482
 20
-319.3734104788592
 30
0.0
 10
560.0893990456848
 20
-320.9706625030984
 30
0.0
 10
557.6069600285119
 20
-325.3136601072145
 30
0.0
 10
553.7222578233715
 20
-332.497713375284
 30
0.0
 10
549.4066675173909
 20
-340.9482027241558
 30
0.0
 10
545.3064038253746
 20
-349.5059199139787
 30
0.0
 10
541.4220307296629
 20
-358.1638792150302
 30
0.0
 10
537.7590706231872
 20
-366.9179946578557
 30
0.0
 10
534.3223251609361
 20
-375.7633872025869
 30
0.0
 10
531.1174472820219
 20
-384.6951494420827
 30
0.0
 10
528.1504534529826
 20
-393.7079676633659
 30
0.0
 10
525.4279908661503
 20
-402.7959853421487
 30
0.0
 10
522.9571777919077
 20
-411.9525877918798
 30
0.0
 10
520.7456292702736
 20
-421.170174137899
 30
0.0
 10
518.8013273802156
 20
-430.4398735712198
 30
0.0
 10
517.132567895525
 20
-439.7513324161563
 30
0.0
 10
515.7475900358437
 20
-449.0924752852425
 30
0.0
 10
514.6547768356285
 20
-458.4485231020864
 30
0.0
 10
513.8612169571082
 20
-467.8024669103114
 30
0.0
 10
513.3866658854549
 20
-476.9186525780009
 30
0.0
 10
513.2559873976822
 20
-483.2946341430948
 30
0.0
 10
513.2515209575967
 20
-486.5590948663965
 30
0.0
 10
513.2509926188453
 20
-486.9452505225537
 30
0.0
  0
SPLINE
  5
D8
330
1F
100
AcDbEntity
  8
0
  6
Continuous
 62
     7
370
    25
100
AcDbSpline
210
0.0
220
0.0
230
1.0
 70
     8
 71
     3
 72
    23
 73
    19
 74
     0
 42
0.000000001
 43
0.00000001
 40
0.0
 40
0.0
 40
0.0
 40
0.0
 40
0.0673956057731923
 40
0.1341096049581926
 40
0.1991888786231301
 40
0.2630236554923172
 40
0.3259707716670787
 40
0.3883468484539753
 40
0.4504268518342465
 40
0.5124382316695277
 40
0.5745610172469697
 40
0.6368912864279841
 40
0.6995163263366319
 40
0.7624901893737389
 40
0.8258262176975495
 40
0.8895017061300391
 40
0.9534664390522828
 40
1.0
 40
1.0
 40
1.0
 40
1.0
 10
793.2495978237856
 20
-487.0793409393003
 30
0.0
 10
793.2504360245459
 20
-487.0532981544563
 30
0.0
 10
793.2521039489093
 20
-487.0014759689091
 30
0.0
 10
793.2872909388805
 20
-486.5501797022549
 30
0.0
 10
793.3708484827275
 20
-485.8340403881963
 30
0.0
 10
793.5202435570807
 20
-484.8423750330203
 30
0.0
 10
793.7503765459034
 20
-483.5958246555213
 30
0.0
 10
794.0747744231484
 20
-482.107494318924
 30
0.0
 10
794.5051116827508
 20
-480.3942058136459
 30
0.0
 10
795.0512253624125
 20
-478.4741346861026
 30
0.0
 10
795.7205605095764
 20
-476.3681913449747
 30
0.0
 10
796.5180465587532
 20
-474.0998619823436
 30
0.0
 10
797.4457077050738
 20
-471.6948835917088
 30
0.0
 10
798.5030552140094
 20
-469.180883005134
 30
0.0
 10
799.6853090201301
 20
-466.586653724144
 30
0.0
 10
800.9887726581891
 20
-463.9449934353098
 30
0.0
 10
802.2609328936724
 20
-461.525962252281
 30
0.0
 10
803.1313427207635
 20
-460.0136886528068
 30
0.0
 10
803.497893798793
 20
-459.3768328856619
 30
0.0
  0
LWPOLYLINE
  5
D9
330
1F
100
AcDbEntity
  8
0
  6
Continuous
 62
     7
370
    25
100
AcDbPolyline
 90
      126
 70
   128
 43
0.0
 10
554.2560408567
 20
-574.3326565329
 10
559.3550136755
 20
-571.5334493248
 10
564.6911632745
 20
-568.8856678711
 10
570.2510398699
 20
-566.3960181744
 10
576.0205720119
 20
-564.0707743645
 10
581.9851953303
 20
-561.9158138642
 10
588.1298449608
 20
-559.9365852651
 10
594.4389858385
 20
-558.1380786739
 10
600.8967022597
 20
-556.5248470024
 10
607.486667589
 20
-555.100962628
 10
614.1922364555
 20
-553.8700189141
 10
620.9964710943
 20
-552.835133252
 10
627.8821861279
 20
-551.9989090434
 10
634.8319801764
 20
-551.3634661143
 10
641.8283043457
 20
-550.9304072599
 10
648.8534833011
 20
-550.7008243276
 10
655.8897732194
 20
-550.6753012578
 10
662.919393399
 20
-550.8539019191
 10
669.9245947482
 20
-551.2361731493
 10
676.8876755907
 20
-551.8211538794
 10
683.7910448856
 20
-552.6073568858
 10
690.6172696426
 20
-553.5928083277
 10
697.3491065324
 20
-554.7750051681
 10
703.9695387648
 20
-556.1509790422
 10
710.4618656512
 20
-557.7172323894
 10
716.8096604574
 20
-559.4698296934
 10
722.9969047466
 20
-561.404329052
 10
729.0079712579
 20
-563.515845285
 10
734.8276555154
 20
-565.7990560175
 10
740.4412838307
 20
-568.248178869
 10
745.8346560083
 20
-570.8570357024
 10
750.9941477503
 20
-573.619038748
 10
755.9067350219
 20
-576.5272046693
 10
760.5600088689
 20
-579.5741874483
 10
764.9422149305
 20
-582.7522890296
 10
769.0422669391
 20
-586.0534914452
 10
772.8498277215
 20
-589.469442748
 10
776.3552733084
 20
-592.9915214505
 10
779.5497410077
 20
-596.6108277813
 10
782.4251702347
 20
-600.3182194206
 10
784.9742959263
 20
-604.1043320294
 10
787.1906775173
 20
-607.95960206
 10
789.0687147452
 20
-611.8742880452
 10
790.6036608211
 20
-615.8385025328
 10
791.7916487717
 20
-619.8422333746
 10
792.6296650974
 20
-623.8753650167
 10
793.1156024557
 20
-627.9277089124
 10
793.2482280512
 20
-631.9890278532
 10
793.0272099776
 20
-636.049069424
 10
792.4531014123
 20
-640.0975690441
 10
791.5273564214
 20
-644.1243016706
 10
790.2523141552
 20
-648.119097005
 10
788.6311988475
 20
-652.0718638239
 10
786.6680987427
 20
-655.9726203931
 10
784.367976632
 20
-659.8115066323
 10
781.736638244
 20
-663.5788266949
 10
778.7807375123
 20
-667.2650702567
 10
775.5077370633
 20
-670.8609170786
 10
771.9259029477
 20
-674.3572887093
 10
768.0442848841
 20
-677.745347725
 10
763.8726951856
 20
-681.0165463913
 10
759.4216573935
 20
-684.1626076545
 10
754.7024304786
 20
-687.1755963284
 10
749.7269255354
 20
-690.0478941935
 10
744.5077105567
 20
-692.772245902
 10
739.0579821157
 20
-695.3417753255
 10
733.3914858474
 20
-697.7499827983
 10
727.5225595827
 20
-699.9907932094
 10
721.4660100365
 20
-702.0585420311
 10
715.2371457343
 20
-703.9480049719
 10
708.8516927191
 20
-705.6544101425
 10
702.3257958678
 20
-707.1734494602
 10
695.67592933
 20
-708.501281691
 10
688.9188886249
 20
-709.6345552591
 10
682.0717537626
 20
-710.5704052061
 10
675.1518154879
 20
-711.3064714388
 10
668.1765542062
 20
-711.8408926465
 10
661.1635873002
 20
-712.1723184667
 10
654.1306269829
 20
-712.2999094848
 10
647.095453956
 20
-712.2233463581
 10
640.0758278479
 20
-711.9428206924
 10
633.089481945
 20
-711.459044165
 10
626.1540652402
 20
-710.773233319
 10
619.2871002858
 20
-709.8871278107
 10
612.5059305098
 20
-708.8029599962
 10
605.8276833379
 20
-707.5234701384
 10
599.2692333146
 20
-706.0518912001
 10
592.8471467854
 20
-704.3919412404
 10
586.5776450187
 20
-702.5478142909
 10
580.4765646929
 20
-700.5241636282
 10
574.5593223348
 20
-698.3261055755
 10
568.8408524168
 20
-695.959195932
 10
563.3356225032
 20
-693.4294022208
 10
558.057521627
 20
-690.743124408
 10
553.0198846559
 20
-687.9071481415
 10
548.2354366454
 20
-684.9286369583
 10
543.7162743996
 20
-681.8151094734
 10
539.473809507
 20
-678.5744308269
 10
535.5187439743
 20
-675.2147986167
 10
531.8610942637
 20
-671.7446837833
 10
528.5100799981
 20
-668.1728636834
 10
525.4741634745
 20
-664.508359743
 10
522.761039127
 20
-660.7604192086
 10
520.3775242082
 20
-656.9385250321
 10
518.3296773277
 20
-653.0523183159
 10
516.622640401
 20
-649.1116226437
 10
515.260749285
 20
-645.1263923778
 10
514.247423143
 20
-641.1066913692
 10
513.585238201
 20
-637.0626747096
 10
513.2758592595
 20
-633.0045613593
 10
513.3200713036
 20
-628.9425976508
 10
513.7177636977
 20
-624.8870481646
 10
514.4679249177
 20
-620.8481561919
 10
515.5686636235
 20
-616.8361254862
 10
517.0172033916
 20
-612.8610868084
 10
518.8098721778
 20
-608.9330857612
 10
520.9421602694
 20
-605.0620432521
 10
523.4086676012
 20
-601.2577372444
 10
526.2031696107
 20
-597.5297769063
 10
529.3186119691
 20
-593.8875874038
 10
532.7471079473
 20
-590.340356677
 10
536.4800134901
 20
-586.8970529281
 10
540.5078903377
 20
-583.566372918
 10
544.820557392
 20
-580.3567244788
 10
549.4071463636
 20
-577.2762308855
 10
554.2560408567
 20
-574.3326565329
  0
LWPOLYLINE
  5
DA
330
1F
100
AcDbEntity
  8
0
  6
Continuous
 62
     7
370
    25
100
AcDbPolyline
 90
      118
 70
   128
 43
0.0
 10
565.994011924
 20
-581.1088429949
 10
561.436144054
 20
-583.8852810822
 10
557.1430018566
 20
-586.7989505295
 10
553.1269649807
 20
-589.8414516785
 10
549.399609651
 20
-593.0040092633
 10
545.9716879236
 20
-596.2775087163
 10
542.853076649
 20
-599.6525073838
 10
540.0527689112
 20
-603.119275964
 10
537.5788463682
 20
-606.667820557
 10
535.4384344716
 20
-610.2879085166
 10
533.6377077348
 20
-613.9691019048
 10
532.1818554885
 20
-617.7007894262
 10
531.0750792466
 20
-621.4722061969
 10
530.3205663645
 20
-625.2724854476
 10
529.9204926734
 20
-629.0906630856
 10
529.8760119431
 20
-632.915732439
 10
530.1872558827
 20
-636.736668588
 10
530.8533236031
 20
-640.5424526953
 10
531.8722921545
 20
-644.3221085027
 10
533.2412323309
 20
-648.0647418687
 10
534.9561875968
 20
-651.7595590166
 10
537.0122188684
 20
-655.3959106339
 10
539.4033992453
 20
-658.9633070797
 10
542.1228271808
 20
-662.4514685666
 10
545.1626712639
 20
-665.8503327641
 10
548.5141570473
 20
-669.1501019401
 10
552.1676263174
 20
-672.3412650102
 10
556.1125469719
 20
-675.4146154058
 10
560.33754463
 20
-678.3612936535
 10
564.8304346542
 20
-681.1728058602
 10
569.5782658614
 20
-683.8410428648
 10
574.5673414313
 20
-686.3583166389
 10
579.7832859134
 20
-688.7173624731
 10
585.2110571634
 20
-690.9113823638
 10
590.8350061881
 20
-692.9340491474
 10
596.6389143535
 20
-694.7795340629
 10
602.6060519947
 20
-696.442510173
 10
608.7192100269
 20
-697.9181888609
 10
614.9607657988
 20
-699.2023091851
 10
621.3127199721
 20
-700.2911774171
 10
627.7567623751
 20
-701.1816442317
 10
634.2743141504
 20
-701.8711472854
 10
640.846572535
 20
-702.3577005719
 10
647.4546083256
 20
-702.6398959427
 10
654.0793448049
 20
-702.7169213557
 10
660.701694719
 20
-702.5885608742
 10
667.3025708137
 20
-702.25517642
 10
673.8629227136
 20
-701.7177290619
 10
680.3638475571
 20
-700.9777759746
 10
686.7866005334
 20
-700.0374461085
 10
693.1126633707
 20
-698.8994493126
 10
699.3237943864
 20
-697.5670717734
 10
705.4020864381
 20
-696.0441486425
 10
711.3300117052
 20
-694.335074681
 10
717.0904743723
 20
-692.4447738463
 10
722.6668791177
 20
-690.3787023331
 10
728.0431376992
 20
-688.1428143586
 10
733.2037519303
 20
-685.7435568397
 10
738.133837388
 20
-683.1878435418
 10
742.8191866331
 20
-680.4830489958
 10
747.2462916007
 20
-677.6369712415
 10
751.4023778444
 20
-674.6578120591
 10
755.2754690738
 20
-671.554164043
 10
758.854397691
 20
-668.3349741059
 10
762.1288495721
 20
-665.0095297922
 10
765.0893732862
 20
-661.5874113774
 10
767.7274393649
 20
-658.0784880655
 10
770.0354350337
 20
-654.492878452
 10
772.0067168955
 20
-650.8409201101
 10
773.6355924917
 20
-647.1331437391
 10
774.917367717
 20
-643.3802397098
 10
775.8483547221
 20
-639.593029171
 10
776.4258561088
 20
-635.7824245125
 10
776.6482070764
 20
-631.959423282
 10
776.5147806908
 20
-628.1350443167
 10
776.025951005
 20
-624.3203064537
 10
775.1831246703
 20
-620.5262224477
 10
773.9887409354
 20
-616.7637198949
 10
772.4462400369
 20
-613.0436533995
 10
770.5600605647
 20
-609.3767483075
 10
768.3356579016
 20
-605.7735748561
 10
765.779430466
 20
-602.2445238421
 10
762.8987592247
 20
-598.7997686055
 10
759.7019392044
 20
-595.4492437395
 10
756.1981979307
 20
-592.2026070742
 10
752.397632208
 20
-589.0692214275
 10
748.3112021926
 20
-586.0581207711
 10
743.950683648
 20
-583.1779887499
 10
739.3286607837
 20
-580.437124135
 10
734.4584510981
 20
-577.8434339322
 10
729.3541015927
 20
-575.4043947006
 10
724.0303257158
 20
-573.1270404817
 10
718.5024701885
 20
-571.0179375655
 10
712.7864829834
 20
-569.0831660055
 10
706.8988395667
 20
-567.3283013697
 10
700.8565119477
 20
-565.7584090386
 10
694.6769304823
 20
-564.3780099897
 10
688.3779022141
 20
-563.1910884009
 10
681.9775977031
 20
-562.2010657991
 10
675.494464098
 20
-561.4107934567
 10
668.9471987946
 20
-560.822555433
 10
662.3546730442
 20
-560.4380427226
 10
655.7359003439
 20
-560.2583654208
 10
649.1099679477
 20
-560.2840435998
 10
642.4959736464
 20
-560.5150012256
 10
635.9129836205
 20
-560.9505722411
 10
629.3799902936
 20
-561.5895005655
 10
622.915817502
 20
-562.4299461779
 10
616.539112592
 20
-563.4694835959
 10
610.2682568578
 20
-564.7051170826
 10
604.1213312975
 20
-566.1332821673
 10
598.116061295
 20
-567.7498654145
 10
592.2697586684
 20
-569.550201382
 10
586.5992768887
 20
-571.5290984733
 10
581.1209728844
 20
-573.6808549037
 10
575.8506352602
 20
-575.9992636434
 10
570.8034648695
 20
-578.4776418802
 10
565.994011924
 20
-581.1088429949
  0
LWPOLYLINE
  5
DB
330
1F
100
AcDbEntity
  8
0
  6
Continuous
 62
     7
370
    25
100
AcDbPolyline
 90
      126
 70
   128
 43
0.0
 10
675.171303137
 20
-173.0142013285
 10
678.8134441245
 20
-175.1174124401
 10
682.6964438145
 20
-177.3596788215
 10
686.8105136015
 20
-179.735347966
 10
691.1452537506
 20
-182.2383780812
 10
695.6897060811
 20
-184.8624901683
 10
700.4323961137
 20
-187.6010098565
 10
705.3613436065
 20
-190.4470681674
 10
710.4641047025
 20
-193.3934311635
 10
715.7277719295
 20
-196.4326824698
 10
721.1390742984
 20
-199.5571472273
 10
726.684319352
 20
-202.7589194616
 10
732.349509068
 20
-206.0299290164
 10
738.1203293231
 20
-209.3618746239
 10
743.9822078444
 20
-212.7463912112
 10
749.9203300146
 20
-216.1748886802
 10
755.9197126292
 20
-219.6387161693
 10
761.9651670176
 20
-223.1291407556
 10
768.0414623623
 20
-226.6373200864
 10
774.1332256004
 20
-230.1544027485
 10
780.2250520589
 20
-233.6715313169
 10
786.3015950164
 20
-237.1797845575
 10
792.3474708732
 20
-240.6703051801
 10
798.3474277386
 20
-244.1342876724
 10
804.286292747
 20
-247.5629722138
 10
810.1490932307
 20
-250.9476903034
 10
815.9209803279
 20
-254.2799179839
 10
821.5873804487
 20
-257.5512416264
 10
827.1340163482
 20
-260.7533457609
 10
832.5468360037
 20
-263.8781910112
 10
837.8121871289
 20
-266.9178715203
 10
842.9167509906
 20
-269.8647227314
 10
847.8476510679
 20
-272.7112624584
 10
852.592425723
 20
-275.4503211056
 10
857.1390993242
 20
-278.0749610598
 10
861.4761535987
 20
-280.57860615
 10
865.5926823909
 20
-282.9548633283
 10
869.4782398677
 20
-285.1978000268
 10
873.1230466434
 20
-287.3016738299
 10
876.517872558
 20
-289.2612297944
 10
879.6541354595
 20
-291.0715141425
 10
882.5239565215
 20
-292.7279062004
 10
885.1200390707
 20
-294.2262674323
 10
887.4358292723
 20
-295.5628152124
 10
889.4655055928
 20
-296.7341410691
 10
891.2039313849
 20
-297.7372928094
 10
892.6467075715
 20
-298.5697562632
 10
893.7901884501
 20
-299.2294279067
 10
894.6314922299
 20
-299.714608772
 10
895.1684852268
 20
-300.0241048279
 10
895.3998134732
 20
-300.1571235496
 10
895.32489745
 20
-300.1133317126
 10
894.9439320863
 20
-299.8928553888
 10
894.2578604179
 20
-299.4962160621
 10
893.268431539
 20
-298.9244370959
 10
891.9781479186
 20
-298.1789524681
 10
890.3902548643
 20
-297.2616615203
 10
888.5087668632
 20
-296.1748711671
 10
886.3384465093
 20
-294.9213323894
 10
883.8847623561
 20
-293.5042037295
 10
881.1539205271
 20
-291.9270695394
 10
878.1528225687
 20
-290.1939156503
 10
874.889044377
 20
-288.3091293563
 10
871.3708256609
 20
-286.2774325048
 10
867.607069942
 20
-284.1040031626
 10
863.6072707981
 20
-281.7943235164
 10
859.3815329359
 20
-279.3541920502
 10
854.9405405818
 20
-276.7898147857
 10
850.2954942605
 20
-274.1076592817
 10
845.458152943
 20
-271.3144789648
 10
840.440707605
 20
-268.4173496257
 10
835.2558549848
 20
-265.4235903358
 10
829.9166816787
 20
-262.3407573611
 10
824.4366799467
 20
-259.1766532855
 10
818.8296897601
 20
-255.9392387963
 10
813.1098777284
 20
-252.6367178576
 10
807.2916896839
 20
-249.2774251605
 10
801.3898296085
 20
-245.869844375
 10
795.4191911446
 20
-242.4225990225
 10
789.3948681324
 20
-238.9443673051
 10
783.3320808526
 20
-235.4439611975
 10
777.2461338795
 20
-231.9302108511
 10
771.1524108129
 20
-228.4119919785
 10
765.0663005208
 20
-224.89821368
 10
759.0031760663
 20
-221.3977211122
 10
752.9783578286
 20
-217.9193593644
 10
747.0070555519
 20
-214.4719460827
 10
741.1043657103
 20
-211.0641604483
 10
735.2851924833
 20
-207.7046070538
 10
729.5642345841
 20
-204.4017839695
 10
723.9559444307
 20
-201.1640652512
 10
718.4744925837
 20
-197.9995891583
 10
713.1337249413
 20
-194.9163368614
 10
707.9471248732
 20
-191.9221592515
 10
702.9278007078
 20
-189.0245567907
 10
698.0884353537
 20
-186.2308633555
 10
693.4412467872
 20
-183.5481382528
 10
688.9979785032
 20
-180.9831789638
 10
684.7698488074
 20
-178.5424736145
 10
680.7675432431
 20
-176.2321601077
 10
677.0011717854
 20
-174.0580683298
 10
673.4802504026
 20
-172.0256912577
 10
670.2136641771
 20
-170.1401819175
 10
667.2096738913
 20
-168.4062963592
 10
664.4758712462
 20
-166.8284103838
 10
662.0191472515
 20
-165.4105195518
 10
659.8457238359
 20
-164.1562087652
 10
657.9610800895
 20
-163.0686096885
 10
656.3699786063
 20
-162.1505072122
 10
655.0764444103
 20
-161.4042117042
 10
654.0837386139
 20
-160.8316046373
 10
653.3943742229
 20
-160.4341355525
 10
653.0100897949
 20
-160.2128190214
 10
652.9318599757
 20
-160.168173811
 10
653.1598744262
 20
-160.3003688965
 10
653.6935588955
 20
-160.6090227044
 10
654.5315699528
 20
-161.0933947493
 10
655.6717897189
 20
-161.7522183397
 10
657.1113364033
 20
-162.583877004
 10
658.84657484
 20
-163.5862341514
 10
660.873121757
 20
-164.7567699641
 10
663.185856312
 20
-166.0925144679
 10
665.7789306299
 20
-167.5901144655
 10
668.6458014125
 20
-169.2457787848
 10
671.7792404752
 20
-171.0553330266
 10
675.171303137
 20
-173.0142013285
  0
LWPOLYLINE
  5
DC
330
1F
100
AcDbEntity
  8
0
  6
Continuous
 62
     7
370
    25
100
AcDbPolyline
 90
      118
 70
   128
 43
0.0
 10
686.9092742043
 20
-179.7903877905
 10
683.7232200696
 20
-177.9504841993
 10
680.797933755
 20
-176.2611447927
 10
678.1418551669
 20
-174.7271949429
 10
675.7626339583
 20
-173.3531011458
 10
673.6671400656
 20
-172.1427945909
 10
671.8614162931
 20
-171.0997776245
 10
670.3506572398
 20
-170.2270507371
 10
669.1392251047
 20
-169.5271338572
 10
668.2306180762
 20
-169.0020359299
 10
667.6274387221
 20
-168.6532853259
 10
667.3314519417
 20
-168.4819085527
 10
667.3434954036
 20
-168.4883298618
 10
667.6635322295
 20
-168.6726206795
 10
668.2906457252
 20
-169.0341680438
 10
669.2230235763
 20
-169.571975738
 10
670.4579841896
 20
-170.2844787366
 10
671.9919661563
 20
-171.1696405404
 10
673.8205335207
 20
-172.2248710403
 10
675.9384284635
 20
-173.4471907738
 10
678.3395396915
 20
-174.8329875737
 10
681.0169419508
 20
-176.3783557261
 10
683.9629170996
 20
-178.0787796184
 10
687.1689778165
 20
-179.9293725173
 10
690.6258702339
 20
-181.9248111635
 10
694.3236292563
 20
-184.059319041
 10
698.2515956824
 20
-186.3267614267
 10
702.3984471565
 20
-188.7206024235
 10
706.7522192418
 20
-191.2339292876
 10
711.3003690528
 20
-193.8594770004
 10
716.0297715505
 20
-196.5897234618
 10
720.9268036716
 20
-199.4167433858
 10
725.97733231
 20
-202.3324264512
 10
731.1668052785
 20
-205.3283533934
 10
736.4802532019
 20
-208.3959065983
 10
741.9023636033
 20
-211.5261790361
 10
747.4174973677
 20
-214.7102210268
 10
753.0097572308
 20
-217.938787764
 10
758.6630114861
 20
-221.202620684
 10
764.360973011
 20
-224.4922679941
 10
770.0872019004
 20
-227.7982687024
 10
775.8251897605
 20
-231.1110978614
 10
781.5583939533
 20
-234.4211863411
 10
787.2702929142
 20
-237.7189953497
 10
792.9443966887
 20
-240.995016434
 10
798.5643681046
 20
-244.239804938
 10
804.113991162
 20
-247.4440347554
 10
809.5772605951
 20
-250.5983918662
 10
814.9384398245
 20
-253.6938450571
 10
820.1820556883
 20
-256.721460371
 10
825.2930038096
 20
-259.6725106157
 10
830.2565327917
 20
-262.538460149
 10
835.0583495843
 20
-265.3110561434
 10
839.6845931427
 20
-267.9823316194
 10
844.1219187211
 20
-270.5445324489
 10
848.3575558242
 20
-272.9903211581
 10
852.3792818661
 20
-275.3126400461
 10
856.1754906583
 20
-277.5047628966
 10
859.7352556304
 20
-279.5603679895
 10
863.0482929513
 20
-281.4735898046
 10
866.1050668966
 20
-283.2388365238
 10
868.8967582381
 20
-284.8510759628
 10
871.4153063911
 20
-286.3056165572
 10
873.6534673661
 20
-287.5982868423
 10
875.6047926952
 20
-288.7253624451
 10
877.2636347006
 20
-289.6835691329
 10
878.6252149836
 20
-290.470171029
 10
879.6856191554
 20
-291.08290674
 10
880.4417757645
 20
-291.5199771866
 10
880.8915195166
 20
-291.7801429544
 10
881.0335438594
 20
-291.8626482446
 10
880.8674536661
 20
-291.7672634682
 10
880.3937020154
 20
-291.4942487465
 10
879.6136692166
 20
-291.0443995428
 10
878.5296206628
 20
-290.4190101661
 10
877.1446488789
 20
-289.6198889822
 10
875.4627683524
 20
-288.6493401694
 10
873.4888259707
 20
-287.5101606807
 10
871.2285062902
 20
-286.2056311203
 10
868.6883341697
 20
-284.7395294412
 10
865.8756194533
 20
-283.1160503335
 10
862.7985043853
 20
-281.3399056209
 10
859.4658239988
 20
-279.4161949714
 10
855.8872114829
 20
-277.3504789213
 10
852.0729691079
 20
-275.1487043424
 10
848.0341051037
 20
-272.8172257472
 10
843.7822592446
 20
-270.3627623219
 10
839.3297025196
 20
-267.7923734094
 10
834.689240409
 20
-265.113524334
 10
829.8742957785
 20
-262.3338909307
 10
824.8987259687
 20
-259.4614972742
 10
819.7768651063
 20
-256.5046184457
 10
814.5235278085
 20
-253.4717826797
 10
809.153808574
 20
-250.3717771973
 10
803.6832187601
 20
-247.2134596341
 10
798.1275186539
 20
-244.0060017563
 10
792.5027214239
 20
-240.7586362366
 10
786.8250694116
 20
-237.4807281415
 10
781.1109208627
 20
-234.1817095266
 10
775.376742024
 20
-230.871099217
 10
769.6390755336
 20
-227.5584358857
 10
763.9144587612
 20
-224.2533039131
 10
758.219408003
 20
-220.9651904197
 10
752.5703341882
 20
-217.7036069395
 10
746.9835270737
 20
-214.4779586264
 10
741.4750867556
 20
-211.2975168739
 10
736.0609131326
 20
-208.1714740716
 10
730.7566005386
 20
-205.108834096
 10
725.577453548
 20
-202.1184214391
 10
720.5384026818
 20
-199.2088933736
 10
715.6539675294
 20
-196.3885969854
 10
710.9382462116
 20
-193.665684765
 10
706.4048205503
 20
-191.0479868465
 10
702.0667666052
 20
-188.5430779299
 10
697.9366072588
 20
-186.1581768958
 10
694.0262279223
 20
-183.9001589714
 10
690.3469134145
 20
-181.7755040195
 10
686.9092742043
 20
-179.7903877905
  0
LWPOLYLINE
  5
DD
330
1F
100
AcDbEntity
  8
0
  6
Continuous
 62
     1
370
    25
100
AcDbPolyline
 90
       17
 70
   128
 43
0.0
 10
752.2459404319
 20
-429.7966824517
 10
757.094834925
 20
-432.7402568042
 10
761.6814238967
 20
-435.8207503975
 10
765.9940909509
 20
-439.0303988368
 10
770.0219677985
 20
-442.3610788468
 10
773.7548733414
 20
-445.8043825957
 10
777.1833693196
 20
-449.3516133225
 10
780.2988116779
 20
-452.993802825
 10
783.0933136874
 20
-456.7217631631
 10
785.5598210193
 20
-460.5260691708
 10
787.6921091108
 20
-464.39711168
 10
789.484777897
 20
-468.3251127271
 10
790.9333176651
 20
-472.300151405
 10
792.034056371
 20
-476.3121821107
 10
792.7842175909
 20
-480.3510740833
 10
793.1819099851
 20
-484.4066235695
 10
793.2509886698
 20
-486.9452505226
  0
LWPOLYLINE
  5
DE
330
1F
100
AcDbEntity
  8
0
  6
Continuous
 62
     1
370
    25
100
AcDbPolyline
 90
       48
 70
   128
 43
0.0
 10
513.2509926188
 20
-486.9452505226
 10
513.386378833
 20
-483.3917348311
 10
513.8723161912
 20
-479.3393909355
 10
514.7103325169
 20
-475.3062592934
 10
515.8983204675
 20
-471.3025284515
 10
517.4332665434
 20
-467.338313964
 10
519.3113037713
 20
-463.4236279787
 10
521.5276853623
 20
-459.5683579481
 10
524.0768110539
 20
-455.7822453393
 10
526.9522402809
 20
-452.0748537001
 10
530.1467079802
 20
-448.4555473693
 10
533.6521535671
 20
-444.9334686667
 10
537.4597143496
 20
-441.5175173639
 10
541.5597663582
 20
-438.2163149484
 10
545.9419724197
 20
-435.0382133671
 10
550.5952462668
 20
-431.9912305881
 10
555.5078335384
 20
-429.0830646667
 10
560.6673252803
 20
-426.3210616211
 10
566.060697458
 20
-423.7122047877
 10
571.6743257732
 20
-421.2630819362
 10
577.4940100308
 20
-418.9798712038
 10
583.505076542
 20
-416.8683549707
 10
589.6923208313
 20
-414.9338556121
 10
596.0401156374
 20
-413.1812583082
 10
602.5324425238
 20
-411.615004961
 10
609.1528747563
 20
-410.2390310868
 10
615.884711646
 20
-409.0568342464
 10
622.7109364031
 20
-408.0713828045
 10
629.6143056979
 20
-407.2851797981
 10
636.5773865404
 20
-406.700199068
 10
643.5825878896
 20
-406.3179278378
 10
650.6122080692
 20
-406.1393271765
 10
657.6484979875
 20
-406.1648502463
 10
664.6736769429
 20
-406.3944331787
 10
671.6700011122
 20
-406.827492033
 10
678.6197951607
 20
-407.4629349621
 10
685.5055101944
 20
-408.2991591707
 10
692.3097448332
 20
-409.3340448328
 10
699.0153136996
 20
-410.5649885467
 10
705.6052790289
 20
-411.9888729211
 10
712.0629954502
 20
-413.6021045926
 10
718.3721363279
 20
-415.4006111838
 10
724.5167859584
 20
-417.3798397829
 10
730.4814092767
 20
-419.5348002832
 10
736.2509414188
 20
-421.8600440931
 10
741.8108180142
 20
-424.3496937899
 10
747.1469676131
 20
-426.9974752436
 10
752.2459404319
 20
-429.7966824517
  0
LWPOLYLINE
  5
DF
330
1F
100
AcDbEntity
  8
0
  6
Continuous
 62
     1
370
    25
100
AcDbPolyline
 90
       21
 70
   128
 43
0.0
 10
752.2459404319
 20
-429.7966824517
 10
757.1314605364
 20
-432.6170165829
 10
761.8278104383
 20
-435.3281241051
 10
766.323141934
 20
-437.9231288223
 10
770.6060704353
 20
-440.3954952575
 10
774.6658037149
 20
-442.7389813197
 10
778.4920711127
 20
-444.9476704221
 10
782.075217049
 20
-447.0159524718
 10
785.4061852197
 20
-448.9386364119
 10
788.4765620603
 20
-450.7108536424
 10
791.2785899165
 20
-452.3281264551
 10
793.8051881176
 20
-453.7863680329
 10
796.0499819528
 20
-455.0819052567
 10
798.0072974027
 20
-456.2114452464
 10
799.672187481
 20
-457.172157481
 10
801.0404480394
 20
-457.9615977535
 10
802.1086283048
 20
-458.5777811708
 10
802.8740203421
 20
-459.0191456459
 10
803.3347012014
 20
-459.2845762308
 10
803.4894907709
 20
-459.373405112
 10
803.4894960392
 20
-459.373405642
  0
LWPOLYLINE
  5
E0
330
1F
100
AcDbEntity
  8
0
  6
Continuous
 62
     1
370
    25
100
AcDbPolyline
 90
       45
 70
   128
 43
0.0
 10
561.0023815307
 20
-319.3734104789
 10
561.039848762
 20
-319.3953107509
 10
561.3443656694
 20
-319.5716674104
 10
561.9542911534
 20
-319.9243353107
 10
562.8680833145
 20
-320.4524452196
 10
564.0834348595
 20
-321.1546633891
 10
565.5972750779
 20
-322.029190419
 10
567.4057772497
 20
-323.0738421535
 10
569.5043781554
 20
-324.2859836665
 10
571.8877758533
 20
-325.662530549
 10
574.5499380755
 20
-327.200029235
 10
577.4841621562
 20
-328.8945615636
 10
580.6830210303
 20
-330.7418854734
 10
584.1384304055
 20
-332.7373110433
 10
587.8416658841
 20
-334.8758122863
 10
591.7833814024
 20
-337.1519800004
 10
595.9536197676
 20
-339.5600400245
 10
600.341823194
 20
-342.0939444953
 10
604.9369413048
 20
-344.7473094874
 10
609.7273415698
 20
-347.513369393
 10
614.7009225752
 20
-350.3851792018
 10
619.8451403651
 20
-353.3554897856
 10
625.1469715634
 20
-356.4167691994
 10
630.5930556191
 20
-359.5613030527
 10
636.1696157811
 20
-362.7811488926
 10
641.8625644652
 20
-366.0681666135
 10
647.6575295961
 20
-369.4140580108
 10
653.539865144
 20
-372.8103728554
 10
659.4947143448
 20
-376.2485210693
 10
665.5070360418
 20
-379.7198244303
 10
671.561646833
 20
-383.2155165763
 10
677.643242144
 20
-386.7267551687
 10
683.7364594484
 20
-390.2446888139
 10
689.8259204149
 20
-393.7604144765
 10
695.8962256389
 20
-397.2650596079
 10
701.9320547407
 20
-400.7497730183
 10
707.9181505612
 20
-404.2057461699
 10
713.8394008212
 20
-407.6242542394
 10
719.680838121
 20
-410.9966682834
 10
725.427716332
 20
-414.3144385069
 10
731.0655119135
 20
-417.5692166939
 10
736.5799924018
 20
-420.7527740787
 10
741.9572045557
 20
-423.8570674974
 10
747.1835932245
 20
-426.8742350223
 10
752.2459404319
 20
-429.7966824517
  0
ENDSEC
  0
SECTION
  2
OBJECTS
  0
DICTIONARY
  5
C
330
0
100
AcDbDictionary
281
     1
  3
ACAD_GROUP
350
D
  3
ACAD_LAYOUT
350
1A
  3
ACAD_MLINESTYLE
350
17
  3
ACAD_PLOTSETTINGS
350
19
  3
ACAD_PLOTSTYLENAME
350
E
  3
ACAD_SCALELIST
350
47
  0
DICTIONARY
  5
D
102
{ACAD_REACTORS
330
C
102
}
330
C
100
AcDbDictionary
281
     1
  0
DICTIONARY
  5
1A
102
{ACAD_REACTORS
330
C
102
}
330
C
100
AcDbDictionary
281
     1
  3
Layout1
350
1E
  3
Layout2
350
26
  3
Model
350
22
  0
DICTIONARY
  5
17
102
{ACAD_REACTORS
330
C
102
}
330
C
100
AcDbDictionary
281
     1
  3
Standard
350
18
  0
DICTIONARY
  5
19
102
{ACAD_REACTORS
330
C
102
}
330
C
100
AcDbDictionary
281
     1
  0
ACDBDICTIONARYWDFLT
  5
E
102
{ACAD_REACTORS
330
C
102
}
330
C
100
AcDbDictionary
281
     1
  3
Normal
350
F
100
AcDbDictionaryWithDefault
340
F
  0
DICTIONARY
  5
47
102
{ACAD_REACTORS
330
C
102
}
330
C
100
AcDbDictionary
281
     1
  3
A0
350
48
  3
A1
350
49
  3
A2
350
4A
  3
A3
350
4B
  3
A4
350
4C
  3
A5
350
4D
  3
A6
350
4E
  3
A7
350
4F
  3
A8
350
50
  3
A9
350
51
  3
B0
350
52
  3
B1
350
53
  3
B2
350
54
  3
B3
350
55
  3
B4
350
56
  3
B5
350
57
  3
B6
350
58
  3
B7
350
59
  3
B8
350
5A
  3
B9
350
5B
  3
C0
350
5C
  3
C1
350
5D
  3
C2
350
5E
  3
C3
350
5F
  3
C4
350
60
  3
C5
350
61
  3
C6
350
62
  3
C7
350
63
  3
C8
350
64
  3
C9
350
65
  3
D0
350
66
  3
D1
350
67
  3
D2
350
68
  0
LAYOUT
  5
1E
102
{ACAD_REACTORS
330
1A
102
}
330
1A
100
AcDbPlotSettings
  1

  2
none_device
  4

  6

 40
0.0
 41
0.0
 42
0.0
 43
0.0
 44
0.0
 45
0.0
 46
0.0
 47
0.0
 48
0.0
 49
0.0
140
0.0
141
0.0
142
1.0
143
1.0
 70
   688
 72
     1
 73
     0
 74
     5
  7

 75
    16
147
1.0
148
0.0
149
0.0
100
AcDbLayout
  1
Layout1
 70
     1
 71
     1
 10
0.0
 20
0.0
 11
420.0
 21
297.0
 12
0.0
 22
0.0
 32
0.0
 14
1.0000000000E+20
 24
1.0000000000E+20
 34
1.0000000000E+20
 15
-1.0000000000E+20
 25
-1.0000000000E+20
 35
-1.0000000000E+20
146
0.0
 13
0.0
 23
0.0
 33
0.0
 16
1.0
 26
0.0
 36
0.0
 17
0.0
 27
1.0
 37
0.0
 76
     0
330
1B
  0
LAYOUT
  5
26
102
{ACAD_REACTORS
330
1A
102
}
330
1A
100
AcDbPlotSettings
  1

  2
none_device
  4

  6

 40
0.0
 41
0.0
 42
0.0
 43
0.0
 44
0.0
 45
0.0
 46
0.0
 47
0.0
 48
0.0
 49
0.0
140
0.0
141
0.0
142
1.0
143
1.0
 70
   688
 72
     1
 73
     0
 74
     5
  7

 75
    16
147
1.0
148
0.0
149
0.0
100
AcDbLayout
  1
Layout2
 70
     1
 71
     2
 10
0.0
 20
0.0
 11
0.0
 21
0.0
 12
0.0
 22
0.0
 32
0.0
 14
0.0
 24
0.0
 34
0.0
 15
0.0
 25
0.0
 35
0.0
146
0.0
 13
0.0
 23
0.0
 33
0.0
 16
1.0
 26
0.0
 36
0.0
 17
0.0
 27
1.0
 37
0.0
 76
     0
330
23
  0
LAYOUT
  5
22
102
{ACAD_REACTORS
330
1A
102
}
330
1A
100
AcDbPlotSettings
  1

  2
none_device
  4
Letter_(8.50_x_11.00_Inches)
  6

 40
6.35
 41
6.35
 42
6.35000508
 43
6.35000508
 44
215.9
 45
279.4
 46
0.0
 47
0.0
 48
0.0
 49
0.0
140
0.0
141
0.0
142
1.0
143
1.0
 70
  1712
 72
     1
 73
     0
 74
     0
  7

 75
     0
147
1.0
148
0.0
149
0.0
100
AcDbLayout
  1
Model
 70
     1
 71
     0
 10
0.0
 20
0.0
 11
279.4
 21
215.9
 12
0.0
 22
0.0
 32
0.0
 14
0.0
 24
0.0
 34
0.0
 15
279.4
 25
215.9
 35
0.0
146
0.0
 13
0.0
 23
0.0
 33
0.0
 16
1.0
 26
0.0
 36
0.0
 17
0.0
 27
1.0
 37
0.0
 76
     0
330
1F
331
29
  0
MLINESTYLE
  5
18
102
{ACAD_REACTORS
330
17
102
}
330
17
100
AcDbMlineStyle
  2
Standard
 70
     0
  3

 62
   256
 51
90.0
 52
90.0
 71
     2
 49
0.5
 62
   256
  6
BYLAYER
 49
-0.5
 62
   256
  6
BYLAYER
  0
ACDBPLACEHOLDER
  5
F
102
{ACAD_REACTORS
330
E
102
}
330
E
  0
SCALE
  5
48
102
{ACAD_REACTORS
330
47
102
}
330
47
100
AcDbScale
 70
     0
300
1:1
140
1.0
141
1.0
290
     1
  0
SCALE
  5
49
102
{ACAD_REACTORS
330
47
102
}
330
47
100
AcDbScale
 70
     0
300
1:2
140
1.0
141
2.0
290
     0
  0
SCALE
  5
4A
102
{ACAD_REACTORS
330
47
102
}
330
47
100
AcDbScale
 70
     0
300
1:4
140
1.0
141
4.0
290
     0
  0
SCALE
  5
4B
102
{ACAD_REACTORS
330
47
102
}
330
47
100
AcDbScale
 70
     0
300
1:5
140
1.0
141
5.0
290
     0
  0
SCALE
  5
4C
102
{ACAD_REACTORS
330
47
102
}
330
47
100
AcDbScale
 70
     0
300
1:8
140
1.0
141
8.0
290
     0
  0
SCALE
  5
4D
102
{ACAD_REACTORS
330
47
102
}
330
47
100
AcDbScale
 70
     0
300
1:10
140
1.0
141
10.0
290
     0
  0
SCALE
  5
4E
102
{ACAD_REACTORS
330
47
102
}
330
47
100
AcDbScale
 70
     0
300
1:16
140
1.0
141
16.0
290
     0
  0
SCALE
  5
4F
102
{ACAD_REACTORS
330
47
102
}
330
47
100
AcDbScale
 70
     0
300
1:20
140
1.0
141
20.0
290
     0
  0
SCALE
  5
50
102
{ACAD_REACTORS
330
47
102
}
330
47
100
AcDbScale
 70
     0
300
1:30
140
1.0
141
30.0
290
     0
  0
SCALE
  5
51
102
{ACAD_REACTORS
330
47
102
}
330
47
100
AcDbScale
 70
     0
300
1:40
140
1.0
141
40.0
290
     0
  0
SCALE
  5
52
102
{ACAD_REACTORS
330
47
102
}
330
47
100
AcDbScale
 70
     0
300
1:50
140
1.0
141
50.0
290
     0
  0
SCALE
  5
53
102
{ACAD_REACTORS
330
47
102
}
330
47
100
AcDbScale
 70
     0
300
1:100
140
1.0
141
100.0
290
     0
  0
SCALE
  5
54
102
{ACAD_REACTORS
330
47
102
}
330
47
100
AcDbScale
 70
     0
300
2:1
140
2.0
141
1.0
290
     0
  0
SCALE
  5
55
102
{ACAD_REACTORS
330
47
102
}
330
47
100
AcDbScale
 70
     0
300
4:1
140
4.0
141
1.0
290
     0
  0
SCALE
  5
56
102
{ACAD_REACTORS
330
47
102
}
330
47
100
AcDbScale
 70
     0
300
8:1
140
8.0
141
1.0
290
     0
  0
SCALE
  5
57
102
{ACAD_REACTORS
330
47
102
}
330
47
100
AcDbScale
 70
     0
300
10:1
140
10.0
141
1.0
290
     0
  0
SCALE
  5
58
102
{ACAD_REACTORS
330
47
102
}
330
47
100
AcDbScale
 70
     0
300
100:1
140
100.0
141
1.0
290
     0
  0
SCALE
  5
59
102
{ACAD_REACTORS
330
47
102
}
330
47
100
AcDbScale
 70
     0
300
1/128" = 1'-0"
140
0.0078125
141
12.0
290
     0
  0
SCALE
  5
5A
102
{ACAD_REACTORS
330
47
102
}
330
47
100
AcDbScale
 70
     0
300
1/64" = 1'-0"
140
0.015625
141
12.0
290
     0
  0
SCALE
  5
5B
102
{ACAD_REACTORS
330
47
102
}
330
47
100
AcDbScale
 70
     0
300
1/32" = 1'-0"
140
0.03125
141
12.0
290
     0
  0
SCALE
  5
5C
102
{ACAD_REACTORS
330
47
102
}
330
47
100
AcDbScale
 70
     0
300
1/16" = 1'-0"
140
0.0625
141
12.0
290
     0
  0
SCALE
  5
5D
102
{ACAD_REACTORS
330
47
102
}
330
47
100
AcDbScale
 70
     0
300
3/32" = 1'-0"
140
0.09375
141
12.0
290
     0
  0
SCALE
  5
5E
102
{ACAD_REACTORS
330
47
102
}
330
47
100
AcDbScale
 70
     0
300
1/8" = 1'-0"
140
0.125
141
12.0
290
     0
  0
SCALE
  5
5F
102
{ACAD_REACTORS
330
47
102
}
330
47
100
AcDbScale
 70
     0
300
3/16" = 1'-0"
140
0.1875
141
12.0
290
     0
  0
SCALE
  5
60
102
{ACAD_REACTORS
330
47
102
}
330
47
100
AcDbScale
 70
     0
300
1/4" = 1'-0"
140
0.25
141
12.0
290
     0
  0
SCALE
  5
61
102
{ACAD_REACTORS
330
47
102
}
330
47
100
AcDbScale
 70
     0
300
3/8" = 1'-0"
140
0.375
141
12.0
290
     0
  0
SCALE
  5
62
102
{ACAD_REACTORS
330
47
102
}
330
47
100
AcDbScale
 70
     0
300
1/2" = 1'-0"
140
0.5
141
12.0
290
     0
  0
SCALE
  5
63
102
{ACAD_REACTORS
330
47
102
}
330
47
100
AcDbScale
 70
     0
300
3/4" = 1'-0"
140
0.75
141
12.0
290
     0
  0
SCALE
  5
64
102
{ACAD_REACTORS
330
47
102
}
330
47
100
AcDbScale
 70
     0
300
1" = 1'-0"
140
1.0
141
12.0
290
     0
  0
SCALE
  5
65
102
{ACAD_REACTORS
330
47
102
}
330
47
100
AcDbScale
 70
     0
300
1-1/2" = 1'-0"
140
1.5
141
12.0
290
     0
  0
SCALE
  5
66
102
{ACAD_REACTORS
330
47
102
}
330
47
100
AcDbScale
 70
     0
300
3" = 1'-0"
140
3.0
141
12.0
290
     0
  0
SCALE
  5
67
102
{ACAD_REACTORS
330
47
102
}
330
47
100
AcDbScale
 70
     0
300
6" = 1'-0"
140
6.0
141
12.0
290
     0
  0
SCALE
  5
68
102
{ACAD_REACTORS
330
47
102
}
330
47
100
AcDbScale
 70
     0
300
1'-0" = 1'-0"
140
12.0
141
12.0
290
     0
  0
ENDSEC
  0
EOF
